Oops, an error
Loading. Please wait.

Wild World tab

665 views 6 this week
1 commentread comment
1 2 3 4 5
2 more votes to show rating
add to favorites
×
Save as Personal and add changes to this tab that will be seen only by you. Learn more ›
×
You can save this tab as Personal to edit and correct it or add notes. All changes will be seen only by you. Learn more »
launch autoscroll
font size
0
reset
how to read this tab
guitar tuner
edit
Autoscroll
slow
fast
+/-
esc
set tempo
stop
Artist: The Birthday Party
Song: "Wild World"
Album: The Bad Seed (1983)



Standard Tuning



Rowland S. Howard (Fender Jaguar into Fender Twin Reverb)



INTRO/VERSE I:
e|------------------------------------------------------------------------|
B|------------------------------------------------------------------------|
G|------------------------------------------------------------------------|
D|------------------------------------------------------------------------|
A|------------------------------------------------------------------------|
E|------------------------------------------------------------------------|
+
e|-------------------------------------16----15---------------------------|
B|-------------------------------------------------13----14----13---------|
G|-------------------------------------------------------------------13---|
D|------------------------------------------------------------------------|
A|------------------------------------------------------------------------|
E|------------------------------------------------------------------------|
+
e|------------------------------------------------------------------------|
B|------------------------------------------------------------------------|
G|------------------------------------------------------------------------|
D|-15~--------------------------------------------------------------------|
A|------------------------------------------------------------------------|
E|------------------------------------------------------------------------|
+
e|-------------------------------------16----15---------------------------|
B|-------------------------------------------------13----14----13---------|
G|-------------------------------------------------------------------13---|
D|------------------------------------------------------------------------|
A|------------------------------------------------------------------------|
E|------------------------------------------------------------------------|
+
e|------------------------------------------------------------------------|
B|------------------------------------------------------------------------|
G|-12~--------------------------------------------------------------------|
D|------------------------------------------------------------------------|
A|------------------------------------------------------------------------|
E|------------------------------------------------------------------------|
+
                                     * play softly
e|------------------------------------------------------------------------|
B|------------------------------------------------------------------------|
G|-------------------------------------13-13-13-13-13-13-13-13-13-13-13-13|
D|------------------------------------------------------------------------|
A|------------------------------------------------------------------------|
E|------------------------------------------------------------------------|
+
e|------------------------------------------------------------------------|
B|------------------------------------------------------------------------|
G|-13---------------------------------------------------------------------|
D|------------------------------------------------------------------------|
A|------------------------------------------------------------------------|
E|------------------------------------------------------------------------|
+
e|------------------------------------------------------------------------|
B|------------------------------------------------------------------------|
G|------------------------------------------------------------------------|
D|-------------------------------------10----11----10----11----10----11---|
A|------------------------------------------------------------------------|
E|------------------------------------------------------------------------|
+
e|------------------------------------------------------------------------|
B|------------------------------------------------------------------------|
G|------------------------------------------------------------------------|
D|-10---------------------------------------------------------------------|
A|------------------------------------------------------------------------|
E|------------------------------------------------------------------------|
+
e|-13----------------11----------------9-----------------8----------------|
B|-13----------------11----------------9-----------------8----------------|
G|------------------------------------------------------------------------|
D|------------------------------------------------------------------------|
A|------------------------------------------------------------------------|
E|------------------------------------------------------------------------|
+
e|------------------------------------------------------------------------|
B|------------------------------------------------------------------------|
G|------------------------------------------------------------------------|
D|------------------------------------------------------------------------|
A|------------------------------------------------------------------------|
E|------------------------------------------------------------------------|
+
e|-13----------------11----------------9-----------------8----------------|
B|-13----------------11----------------9-----------------8----------------|
G|------------------------------------------------------------------------|
D|------------------------------------------------------------------------|
A|------------------------------------------------------------------------|
E|------------------------------------------------------------------------|



CHORUS:
e|------------------------------------------------------------------------||
B|-------8-----------9-----8-----------8-----------8-----9-----8----------||
G|-10----------10----------------10----------10----------------------10---|| x 3
D|------------------------------------------------------------------------||
A|------------------------------------------------------------------------||
E|------------------------------------------------------------------------||
+
e|------------------------------------------------------------------------|
B|-8-----------8-----9-----8-----------8----------------------------------|
G|-------10----------------------10---------------------------------------|
D|------------------------------------------------------------------------|
A|------------------------------------------------------------------------|
E|------------------------------------------------------------------------|



CHORUS:
Overdub
  * palm muted throughout
e|------------------------------------------------------------------------|
B|------------------------------------------------------------------------|
G|------------------------------------------------------------------------|
D|-------------------------------------------------------------------3----|
A|-------------------------------------3-----------------------3----------|
E|-1--1--1--1--1--1--1--1--1--1--1--1-------------------------------------|
+
e|------------------------------------------------------------------------|
B|------------------------------------------------------------------------|
G|------------------------------------------------------------------------|
D|------------------------------------------------------------------------|
A|-------------------------------------3----------------------------------|
E|-1--1--1--1--1--1--1--1--1--1--1--1-------------------------------------|
+
e|------------------------------------------------------------------------|
B|------------------------------------------------------------------------|
G|------------------------------------------------------------------------|
D|-------------------------------------------------------------------3----|
A|-------------------------------------3-----------------------3----------|
E|-1--1--1--1--1--1--1--1--1--1--1--1-------------------------------------|
+
e|------------------------------------------------------------------------|
B|------------------------------------------------------------------------|
G|------------------------------------------------------------------------|
D|------------------------------------------------------------------------|
A|-------------------------------------3----------------------------------|
E|-1--1--1--1--1--1--1--1--1--1--1--1-------------------------------------|



INTERLUDE/VERSE II:
e|------------------------------------------------------------------------|
B|------------------------------------------------------------------------|
G|------------------------------------------------------------------------|
D|------------------------------------------------------------------------|
A|------------------------------------------------------------------------|
E|------------------------------------------------------------------------|
+
e|-------------------------------------16----15---------------------------|
B|-------------------------------------------------13----14----13---------|
G|-------------------------------------------------------------------13---|
D|------------------------------------------------------------------------|
A|------------------------------------------------------------------------|
E|------------------------------------------------------------------------|
+
e|------------------------------------------------------------------------|
B|------------------------------------------------------------------------|
G|------------------------------------------------------------------------|
D|-15~--------------------------------------------------------------------|
A|------------------------------------------------------------------------|
E|------------------------------------------------------------------------|
+
e|-------------------------------------16----15---------------------------|
B|-------------------------------------------------13----14----13---------|
G|-------------------------------------------------------------------13~--|
D|------------------------------------------------------------------------|
A|------------------------------------------------------------------------|
E|------------------------------------------------------------------------|
+
e|------------------------------------------------------------------------|
B|------------------------------------------------------------------------|
G|-------------12~---V-----~----------------------------------------------|
D|------------------------------------------------------------------------|
A|------------------------------------------------------------------------|
E|------------------------------------------------------------------------|
+
                                     * play softly
e|------------------------------------------------------------------------|
B|------------------------------------------------------------------------|
G|-------------------------------------13-13-13-13-13-13-13-13-13-13-13-13|
D|------------------------------------------------------------------------|
A|------------------------------------------------------------------------|
E|------------------------------------------------------------------------|
+
e|------------------------------------------------------------------------|
B|------------------------------------------------------------------------|
G|-13---------------------------------------------------------------------|
D|------------------------------------------------------------------------|
A|------------------------------------------------------------------------|
E|------------------------------------------------------------------------|
+
e|------------------------------------------------------------------------|
B|------------------------------------------------------------------------|
G|------------------------------------------------------------------------|
D|-------------------------------------10----11----10----11----10----11---|
A|------------------------------------------------------------------------|
E|------------------------------------------------------------------------|
+
e|------------------------------------------------------------------------|
B|------------------------------------------------------------------------|
G|------------------------------------------------------------------------|
D|-10~--------------------------------------------------------------------|
A|------------------------------------------------------------------------|
E|------------------------------------------------------------------------|
+
e|-------------------13----------------11----------------9----------------|
B|-------------------13----------------11----------------9----------------|
G|------------------------------------------------------------------------|
D|------------------------------------------------------------------------|
A|------------------------------------------------------------------------|
E|------------------------------------------------------------------------|
+
e|-8----------------------------------------------------------------------|
B|-8----------------------------------------------------------------------|
G|------------------------------------------------------------------------|
D|------------------------------------------------------------------------|
A|------------------------------------------------------------------------|
E|------------------------------------------------------------------------|
+
e|-13----------------11----------------9-----------------8----------------|
B|-13----------------11----------------9-----------------8----------------|
G|------------------------------------------------------------------------|
D|------------------------------------------------------------------------|
A|------------------------------------------------------------------------|
E|------------------------------------------------------------------------|



INTERLUDE/OUTRO:
e|------------------------------------------------------------------------|
B|------------------------------------------------------------------------|
G|------------------------------------------------------------------------|
D|------------------------------------------------------------------------|
A|------------------------------------------------------------------------|
E|------------------------------------------------------------------------|
+
e|-------------------------------------16----15---------------------------|
B|-------------------------------------------------13----14----13---------|
G|-------------------------------------------------------------------13---|
D|------------------------------------------------------------------------|
A|------------------------------------------------------------------------|
E|------------------------------------------------------------------------|
+
e|------------------------------------------------------------------------|
B|------------------------------------------------------------------------|
G|-12~--------------------------------------------------------------------|
D|------------------------------------------------------------------------|
A|------------------------------------------------------------------------|
E|------------------------------------------------------------------------|
+
e|------------------------------------------------------------------------||
B|------------------------------------------------------------------------||
G|------------------------------------------------------------------------|| x 2
D|------------------------------------------------------------------------||
A|------------------------------------------------------------------------||
E|------------------------------------------------------------------------||
+
e|------------------------------------------------------------------------|
B|-------------------------------------------------------13----14----13---|
G|-------------------------------------12----13----12---------------------|
D|------------------------------------------------------------------------|
A|------------------------------------------------------------------------|
E|------------------------------------------------------------------------|
+
e|-16----15~--------------------------------------------------------------|
B|------------------------------------------------------------------------|
G|------------------------------------------------------------------------|
D|------------------------------------------------------------------------|
A|------------------------------------------------------------------------|
E|------------------------------------------------------------------------|
+
e|------------------------------------------------------------------------|
B|------------------------------------------------------------------------|
G|------------------------------------------------------------------------|
D|------------------------------------------------------------------------|
A|------------------------------------------------------------------------|
E|------------------------------------------------------------------------|
+
e|-------------------13----------------11----------------9----------------|
B|-------------------13----------------11----------------9----------------|
G|------------------------------------------------------------------------|
D|------------------------------------------------------------------------|
A|------------------------------------------------------------------------|
E|------------------------------------------------------------------------|
+
e|-8-----------------1-----------------3-----------------4----------------|
B|-8-----------------1-----------------3-----------------4----------------|
G|------------------------------------------------------------------------|
D|------------------------------------------------------------------------|
A|------------------------------------------------------------------------|
E|------------------------------------------------------------------------|
+
e|-6-----------------13----------------11----------------9----------------|
B|-6-----------------13----------------11----------------9----------------|
G|------------------------------------------------------------------------|
D|------------------------------------------------------------------------|
A|------------------------------------------------------------------------|
E|------------------------------------------------------------------------|
+
e|-8-----------------13----------------15----------------16---------------|
B|-8-----------------13----------------15----------------16---------------|
G|------------------------------------------------------------------------|
D|------------------------------------------------------------------------|
A|------------------------------------------------------------------------|
E|------------------------------------------------------------------------|
+
e|-15----------------13----------------11----------------9----------------|
B|-15----------------13----------------11----------------9----------------|
G|------------------------------------------------------------------------|
D|------------------------------------------------------------------------|
A|------------------------------------------------------------------------|
E|------------------------------------------------------------------------|
+
e|-8-----------------1-----------------3-----------------4----------------|
B|-8-----------------1-----------------3-----------------4----------------|
G|------------------------------------------------------------------------|
D|------------------------------------------------------------------------|
A|------------------------------------------------------------------------|
E|------------------------------------------------------------------------|
+
e|-3-----------------13----------------11----------------9----------------|
B|-3-----------------13----------------11----------------9----------------|
G|------------------------------------------------------------------------|
D|------------------------------------------------------------------------|
A|------------------------------------------------------------------------|
E|------------------------------------------------------------------------|
+
e|-8-----------------13----------------15----------------16----16----16---|
B|-8-----------------13----------------15----------------16----16----16---|
G|------------------------------------------------------------------------|
D|------------------------------------------------------------------------|
A|------------------------------------------------------------------------|
E|------------------------------------------------------------------------|
+
e|-16----------16----16----------16----------16----16----------16---------|
B|-16----------16----16----------16----------16----------16----16---------|
G|------------------------------------------------------------------------|
D|------------------------------------------------------------------------|
A|------------------------------------------------------------------------|
E|------------------------------------------------------------------------|
+
e|-------------------16---\15---------------------------------------------|
B|-------------------16---\15---------------------------------------------|
G|------------------------------------------------------------------------|
D|------------------------------------------------------------------------|
A|------------------------------------------------------------------------|
E|------------------------------------------------------------------------|



SONG STRUCTURE:

INTRO/VERSE I
CHORUS
INTERLUDE/VERSE II
CHORUS
INTERLUDE/OUTRO



That's it.  Please leave any comments, questions, or requests.  Cheers!
-Bennyshambles78-



            
            
Suggest correction
Creating personal tab
Creating personal tab
You can edit any tab online and save it as your Personal.

You can edit, replace or remove any tab part or add personal notes – all changes will be seen only by you.

Personal tabs can be accessed anytime from any device, even offline.
Learn more »
Give kudos to tab author, rate the tab!
1 2 3 4 5
comments
print report bad tab
1 comment total.
0 reply
oliharper01 10 May 14, 2017 11:13 AM

Really great tab!! Brilliant!

guest
You may want to rate the tab now too:
select rating
Wanna post a correction for this tab? Suggest correction