Oops, an error
Loading. Please wait.

The Day tab

64 views 1 this week
no commentswrite comment
1 2 3 4 5
3 more votes to show rating
add to favorites
×
Save as Personal and add changes to this tab that will be seen only by you. Learn more ›
×
You can save this tab as Personal to edit and correct it or add notes. All changes will be seen only by you. Learn more »
launch autoscroll
font size
0
reset
how to read this tab
guitar tuner
edit
Autoscroll
slow
fast
+/-
esc
set tempo
stop
                                      The Black Angels - The Day                                   -Saindou74 

                                                         Please note that this tab is based on this live
[Intro]                                                     https://www.youtube.com/watch?v=9-fZzEhXumg
(Guitar 1)                                                                Official record                    
       C   G    (x3)  E     E     E                         https://www.youtube.com/watch?v=ApL166v2puU
e|-(0)-0---3-|  |-----------------------|
B|-(0)-1---3-|  |-(0)-0-(0)-0-(0)-0---0-|
G|-(0)-0---0-|  |-(0)-1-(0)-1-(0)-1---1-|
D|-(0)-2---0-|  |-(0)-2-(0)-2-(0)-2---2-|
A|-(0)-3---2-|  |-(0)-2-(0)-2-(0)-2---2-|
E|---------3-|  |-----0-----0-----0---0-|

       E     E     C   G
e|-------------(0)-0---3-|
B|-(0)-0-(0)-0-(0)-1---3-|
G|-(0)-1-(0)-1-(0)-0---0-|
D|-(0)-2-(0)-2-(0)-2---0-|
A|-(0)-2-(0)-2-(0)-3---2-|
E|-----0-----0---------3-|       

(Guitar 2)
(Guitar 2 play this to carry the Guitar 1)
       C   G          E
e|-(0)-0---3-|  |---------------| 
B|-(0)-1---3-|  |-(0)-0---------|
G|-(0)-0---0-|  |-(0)-1---------|
D|-(0)-2---0-|  |-(0)-2---------|
A|-(0)-3---2-|  |-(0)-2---------|
E|---------3-|  |-----0---------|
                                                                  
[Verse]                                                          
(Guitar 1)                                                    
 (x3)  E     E     E                             
e|-----------------------|                       
B|-(0)-0-(0)-0-(0)-0---0-|                       
G|-(0)-1-(0)-1-(0)-1---1-|                       
D|-(0)-2-(0)-2-(0)-2---2-|                       
A|-(0)-2-(0)-2-(0)-2---2-|
E|-----0-----0-----0---0-|

       E     E     C   G
e|-------------(0)-0---3-|
B|-(0)-0-(0)-0-(0)-1---3-|
G|-(0)-1-(0)-1-(0)-0---0-|
D|-(0)-2-(0)-2-(0)-2---0-|
A|-(0)-2-(0)-2-(0)-3---2-|
E|-----0-----0---------3-|

(Guitar 2)
(Guitar 2 play this to carry the Guitar 1)
       C   G          E
e|-(0)-0---3-|  |---------------| 
B|-(0)-1---3-|  |-(0)-0---------|
G|-(0)-0---0-|  |-(0)-1---------|
D|-(0)-2---0-|  |-(0)-2---------|
A|-(0)-3---2-|  |-(0)-2---------|
E|---------3-|  |-----0---------|

[Bridge]
(In this part Guitar 2 play only the G and C chords, when Guitar 1 play all chords )
A                G     A                    G
No rain or storm could keep them from love, no        
A                G     A                  (0)C G    
No rain or storm could keep them from love, hey

[Verse]
(Guitar 1)                                                    
 (x3)  E     E     E                             
e|-----------------------|                       
B|-(0)-0-(0)-0-(0)-0---0-|                       
G|-(0)-1-(0)-1-(0)-1---1-|                       
D|-(0)-2-(0)-2-(0)-2---2-|                       
A|-(0)-2-(0)-2-(0)-2---2-|
E|-----0-----0-----0---0-|

       E     E     C   G
e|-------------(0)-0---3-|
B|-(0)-0-(0)-0-(0)-1---3-|
G|-(0)-1-(0)-1-(0)-0---0-|
D|-(0)-2-(0)-2-(0)-2---0-|
A|-(0)-2-(0)-2-(0)-3---2-|
E|-----0-----0---------3-|

(Guitar 2)
(Guitar 2 play this to carry the Guitar 1)
       C   G          E
e|-(0)-0---3-|  |---------------| 
B|-(0)-1---3-|  |-(0)-0---------|
G|-(0)-0---0-|  |-(0)-1---------|
D|-(0)-2---0-|  |-(0)-2---------|
A|-(0)-3---2-|  |-(0)-2---------|
E|---------3-|  |-----0---------|

[Hook]
(Guitar 1)
A          F     A
The day is thru
             F           A
It's time to start anew
            
The day is thru

(Guitar 1)   A    F     A     F      A            
(Guitar 2)e|-----------------------------| |------|
          B|-----------------------------| |------|
          G|----8-7----------------------| |------|
          D|-7------10--7--10-----5--7---| |-10-7-|
          A|------------------12---------| |------|
          E|-----------------------------| |------|

[Solo]
(x3)
       E     E     E
e|-----------------------|
B|-(0)-0-(0)-0-(0)-0---0-|
G|-(0)-1-(0)-1-(0)-1---1-|
D|-(0)-2-(0)-2-(0)-2---2-|
A|-(0)-2-(0)-2-(0)-2---2-|
E|-----0-----0-----0---0-|

       E     E     C   G
e|-------------(0)-0---3-|
B|-(0)-0-(0)-0-(0)-1---3-|
G|-(0)-1-(0)-1-(0)-0---0-|
D|-(0)-2-(0)-2-(0)-2---0-|
A|-(0)-2-(0)-2-(0)-3---2-|
E|-----0-----0---------3-| 

(Guitar 2) 
(Bend on hold) 
e|------------------------------------| |-------------------|
B|------------------------------------| |-------------------|
G|-7b9-(9)-(9)-(9)-(9)-(9)-(9)-(9)-7~-| |-7b9r7--5-7-7b9r7--|
D|------------------------------------| |-------------------|
A|------------------------------------| |-------------------|
E|------------------------------------| |-------------------|

[Verse]
(Guitar 1)                                                   
 (x3)  E     E     E                             
e|-----------------------|                       
B|-(0)-0-(0)-0-(0)-0---0-|                       
G|-(0)-1-(0)-1-(0)-1---1-|                       
D|-(0)-2-(0)-2-(0)-2---2-|                       
A|-(0)-2-(0)-2-(0)-2---2-|
E|-----0-----0-----0---0-|

       E     E     C   G
e|-------------(0)-0---3-|
B|-(0)-0-(0)-0-(0)-1---3-|
G|-(0)-1-(0)-1-(0)-0---0-|
D|-(0)-2-(0)-2-(0)-2---0-|
A|-(0)-2-(0)-2-(0)-3---2-|
E|-----0-----0---------3-|

(Guitar 2)
(This part is played when the Guitar 1 is playing those chords, in the same thing)
       C   G          E
e|-(0)-0---3-|  |---------------| 
B|-(0)-1---3-|  |-(0)-0---------|
G|-(0)-0---0-|  |-(0)-1---------|
D|-(0)-2---0-|  |-(0)-2---------|
A|-(0)-3---2-|  |-(0)-2---------|
E|---------3-|  |-----0---------|

[Hook]
(Guitar 1)
A          F     C
The day is thru
             G           A
It's time to start anew
             F           C
And when the cycle ends 
        G
another starts again

(Guitar 1)        A    F     C      G   
(Guitar 2) (x2)e|---------------------------|
               B|---------------------------|
               G|----8-7--------------------|
               D|-7-------10-----10-----5---|
               A|------------10--10-10------|
               E|---------------------------|

[Chorus]
(Guitar 1)
    A     A    G     A     C    A    G     A     A
e|--0-(0)-0----3-(0)-0-(0)-0----0----3-(0)-0-(0)-0--|
B|--2-(0)-2----3-(0)-2-(0)-1----2----3-(0)-2-(0)-2--|
G|--2-(0)-2----0-(0)-2-(0)-0----2----0-(0)-2-(0)-2--|
D|--2-(0)-2----0-(0)-2-(0)-2----2----0-(0)-2-(0)-2--|
A|--0-(0)-0----2-(0)-0-(0)-3----0----2-(0)-0-(0)-0--|
E|-------------3---------------------3--------------|

(x7)
   A    G     A     C    A    G     A     A
e|-0----3-(0)-0-(0)-0----0----3-(0)-0-(0)-0--|
B|-2----3-(0)-2-(0)-1----2----3-(0)-2-(0)-2--|
G|-2----0-(0)-2-(0)-0----2----0-(0)-2-(0)-2--|
D|-2----0-(0)-2-(0)-2----2----0-(0)-2-(0)-2--|
A|-0----2-(0)-0-(0)-3----0----2-(0)-0-(0)-0--|
E|------3---------------------3--------------|

(Guitar 1)    A     G    A    C  A   G    A    
(Guitar 2)e|-----5-----5-5----8--5----------------|
          B|--------8----5--8----------8-(8)\-5---|
          G|------------------------/9----9-------|
          D|--7-----------------------------------|
          A|--------------------------------------|
          E|--------------------------------------|

(Guitar 1)       A    G    A    C  A   G    A     A
(Guitar 2)(x7)e|---5-----5-5----8--5----------------|
              B|------8----5--8----------8-(8)\-5---|
              G|----------------------/9----9-------|
              D|-7----------------------------------|
              A|------------------------------------|
              E|------------------------------------|


************************************

| (n) Ghost note
| r   Release
| b   Bend
| r   Bend release
| /   Slide up
| \   Slide down
| ~   Vibrato

************************************

            
            
Suggest correction
Creating personal tab
Creating personal tab
You can edit any tab online and save it as your Personal.

You can edit, replace or remove any tab part or add personal notes – all changes will be seen only by you.

Personal tabs can be accessed anytime from any device, even offline.
Learn more »
Give kudos to tab author, rate the tab!
1 2 3 4 5
comments
print report bad tab
guest
You may want to rate the tab now too:
select rating
Wanna post a correction for this tab? Suggest correction