Oops, an error
Loading. Please wait.

Young Men Dead intro tab

version 1
version 1

Intro

Whole song

16,257 views 9 this week
4 commentsread comments
1 2 3 4 5
x 4
add to favorites
×
Save as Personal and add changes to this tab that will be seen only by you. Learn more ›
×
You can save this tab as Personal to edit and correct it or add notes. All changes will be seen only by you. Learn more »
launch autoscroll
font size
0
reset
how to read this tab
guitar tuner
edit
Autoscroll
slow
fast
+/-
esc
set tempo
stop
Author
Intro and main riff to "Young Men Dead."

Maybe.

E|-------------------------------------------------------------------|
B|-------------------------------------------------------------------|
G|-------------------------------------------------------------------|
D|-----------3b---------------------3b-------------------------------|
A|-3-4-5-5-5----5-0-3-5-3-0-3-5-5-5----5-----------------------------|
e|-------------------------------------------------------------------|

E|-------------------------------------------------------------------|
B|-------------------------------------------------------------------|
G|-------------------------------------------------------------------|
D|-----------3b---------------------3b-------------------------------|
A|-3-4-5-5-5----5-0-3-5-3-0-3-5-5-5----5-3-0-0-3-5-------------------|
e|-------------------------------------------------------------------|

I don't think the A|-0-3-5-3-0-3-| part is right. It's giving me trouble to figure out, 
working on it. Anyone with a correction, it would be appreciated.

            
            
Suggest correction
Creating personal tab
Creating personal tab
You can edit any tab online and save it as your Personal.

You can edit, replace or remove any tab part or add personal notes – all changes will be seen only by you.

Personal tabs can be accessed anytime from any device, even offline.
Learn more »
comments
print report bad tab
4 comments total. Showing first comments.
-1 reply
Renzorioza 10 Oct 16, 2010 04:46 PM

try A|5-3p0h3p3-3-4-5-5-5|

0 reply
sai_kun 10 Nov 03, 2010 06:34 PM

instead of A|-0-3-5-3-0-3-| try A |-5-5-5-| then D |-7-8-9-|

+1 reply
DrStankWang 10 Jan 29, 2011 07:27 PM

D-------------3b---------------------3b--
A-0-3-4-5-5-5----5-5-3-5-0-3-4-5-5-5----5

guest
You may want to rate the tab now too:
select rating
Wanna post a correction for this tab? Suggest correction