Oops, an error
Loading. Please wait.

I Think I Like You tab

version 1
version 1

Whole song

19,302 views 15 this week
1 commentread comment
1 2 3 4 5
x 5
add to favorites
×
Save as Personal and add changes to this tab that will be seen only by you. Learn more ›
×
You can save this tab as Personal to edit and correct it or add notes. All changes will be seen only by you. Learn more »
launch autoscroll
font size
0
reset
how to read this tab
guitar tuner
edit
Autoscroll
slow
fast
+/-
esc
set tempo
stop
Author
Difficulty
-------------------------------------------------------------------------------
		I Think I Like You - The Black Box Revelation
-------------------------------------------------------------------------------
Tabbed by:Stefan De Graef
Email:stefanneman@hotmail.com

Tuning: E standard (EADBGe)

Main Riff

e| ------5--------------------------------|
B| --5---5 ---------5---------------------|
G| --7b-----7b-7---5---7------------------|
D| ----------------------7---0---5---7----|
A| --------------------------0---5---7----|
E| ---------------------------------------|

e| ---------------------------------------------------------|
B| ---5------7----5-----------5-----------------------------|
G| ---5---7---7---5---7---7---5---7-------------------------|
D| -------7-----------7---7-------7---0---5---7---7---7-----|
A|------------------------------------0---5---7---7---7-----|
E|----------------------------------------------------------|


Pre-Chorus

	A	G	C	A

e|-------------------------------------------------------------|
B|-------------------------------------------------------------|
G|-------------------------5-----------------------------------|
D|-------7--------5--------5---------5-------------------------|
A|-------7--------5--------3---------5-------------------------|
E|-------5--------3------------------3-------------------------|


Chorus

	A	C	G	A

e|-------------------------------------------------------------|
B|-------------------------------------------------------------|
G|----------------5--------------------------------------------|
D|------7---------5---------3-------5--------------------------|
A|------7---------3---------3-------5--------------------------|
E|------5-------------------5-------7--------------------------|

Main Riff

Pre-Chorus

Chorus

Bridge/Organ solo

There's virtually no guitar in the bridge, just some muted x notes, but the bass
follows the Pre-Chorus root notes so you could play that if you want.

Chorus x 2

Main Riff

The Black Box Revelation is a 2 man modern blues band from Belgium, this is the first 
on their cd "Set Your Head On Fire".

Official website: http://www.theblackboxrevelation.be
Myspace: http://www.myspace.com/theblackboxrevelation

            
            
Suggest correction
Creating personal tab
Creating personal tab
You can edit any tab online and save it as your Personal.

You can edit, replace or remove any tab part or add personal notes – all changes will be seen only by you.

Personal tabs can be accessed anytime from any device, even offline.
Learn more »
comments
print report bad tab
1 comment total.
+1 reply
subshadow 42 Oct 18, 2008 02:48 AM

isn't it more like this?


e| ------5--------------------------------|
B| --5---5 --------5----------------------|
G| --7b-----7b-7---5---7------------------|
D| ----------------------7---0---5---7----|
A| --------------------------0---5---7----|
E| ---------------------------------------|

e| ---------------------------------------------------------|
B| ---5-------7---5-----------5-----------------------------|
G| ---5---7---7---5---7---7---5---7-------------------------|
D| -------7-----------7---7-------7---0---5---7---7---7-----|
A|------------------------------------0---5---7---7---7-----|
E|----------------------------------------------------------|

guest
You may want to rate the tab now too:
select rating
Wanna post a correction for this tab? Suggest correction