Oops, an error
Loading. Please wait.

Never Alone Always Together solo tab

version 1
version 1

Solo

Whole song

8,001 views 1 this week
1 commentread comment
1 2 3 4 5
x 5
add to favorites
×
Save as Personal and add changes to this tab that will be seen only by you. Learn more ›
×
You can save this tab as Personal to edit and correct it or add notes. All changes will be seen only by you. Learn more »
launch autoscroll
font size
0
reset
how to read this tab
guitar tuner
edit
Autoscroll
slow
fast
+/-
esc
set tempo
stop
Author
There's another great tab that shows how to play the rest of the song.

e|--------12-12------------------------------------------|
B|--------12-12-10b12b10------------------10-10b-10b-10b-|
G|-----------------------12~--9------9h12----------------|
D|--------------------------------12---------------------|
A|-------------------------------------------------------|
E|-------------------------------------------------------|

e|-------------------------------------------------------|
B|------10b-10b-10b-----10b-10b----------------------10b-|
G|------------------12----------12-9-9-9-9-9-9-----9-----|
D|----------------------------------------------12-------|
A|-------------------------------------------------------|
E|-------------------------------------------------------|

e|-------12-----12-----12-----12-----12-----12-----------|
B|----------10b----10b----10b----10b----10b----10----10b-|
G|------------------------------------------------12-----|
D|-------------------------------------------------------|
A|-------------------------------------------------------|
E|-------------------------------------------------------|

e|---------------------------10-----------------10-------|
B|--10b------10b---------10b----10----------10b----10----|
G|------12-9----------12-----------12-----12----------12-|
D|-----------------12------------------12----------------|
A|-------------------------------------------------------|
E|-------------------------------------------------------|

e|-------------------------------------------------------|
B|--10b-10b----------------------------------------------|
G|----------12-9-9--7------------------------------------|
D|-------------------------------------------------------|
A|-------------------------------------------------------|
E|-------------------------------------------------------|

Is it hard or is it cool, my friend
To be two people in your head, all day?
I wish that you could be one personality
So you could talk & think the same
And this all would pass by

Never alone, always together
Maybe you’re blessed, maybe you’re cursed
Never alone, always together
Sometimes I think it could be worse

Is this truth or is the other telling lies
You change your voice and then to my surprise
You’re waging war behind your victim eyes
One of you laughing while I hear the other cry

Never alone, always together
Maybe you’re blessed, maybe you’re cursed
Never alone, always together, and when I look around
Sometimes I think it could be worse

Never alone, always together
Maybe you’re blessed, maybe you’re cursed
Never alone, always together, and when I look around
Sometimes I think it could be worse

            
            
Suggest correction
Creating personal tab
Creating personal tab
You can edit any tab online and save it as your Personal.

You can edit, replace or remove any tab part or add personal notes – all changes will be seen only by you.

Personal tabs can be accessed anytime from any device, even offline.
Learn more »
comments
print report bad tab
1 comment total.
+1 reply
Bladerkeuh 126 Aug 27, 2009 01:22 AM

Nice tab, alleen mis ik wa dubbele noten, ma da zijn details :)

guest
You may want to rate the tab now too:
select rating
Wanna post a correction for this tab? Suggest correction