Oops, an error
Loading. Please wait.

Black Moon Creeping tab

version 2
version 2

Whole song

5,720 views 9 this week
no commentswrite comment
1 2 3 4 5
1 last vote to show rating
add to favorites
×
Save as Personal and add changes to this tab that will be seen only by you. Learn more ›
×
You can save this tab as Personal to edit and correct it or add notes. All changes will be seen only by you. Learn more »
launch autoscroll
font size
0
reset
how to read this tab
guitar tuner
edit
Autoscroll
slow
fast
+/-
esc
set tempo
stop
Band: The Black Crowes

Song: Black Moon Creeping

Album: Southern Harmony And Musical Companion

Tuning: Open G (DGDGbG)

Tabbed By: Graham Johnson

Intro:
g----------|-----------------------------------|
b-2--2-0---|-----------------------------------|
G-2--2-0---|-----------------------------------|
D-2--2-0---|-----------------------------------|
G-2--2-0---|-------5------------3------3-------|
D----------|-3-5-5----3-5-5-------5-5----3-5-5-|


g--------------------------------------||
b-----3--5--3--5--3--5-----------------||
G-----3--5--3--5--3--5----3h-0o-3h-0o--||
D-3---3--5--3--5--3--5--0-3h-0o-3h-0o--||
G-3---3--5--3--5--3--5--0--------------||
D---5----------------------------------||I think play this 3 or 4 times.

Verse:
g--------------------------------------||
b-----0-------0-----------1------3\--0-||
G-5-3-0---3-5-0--3-0----0------------0-||
D-5-3-0---3-5-0------/2------/3------0-||
G-5-3-0---3-5-0----------------------0-||
D-----0-------0------------------------||


Chorus:
g---------------------|
b-X-X-0--3--X-0-0-----|
G-X-X-0--3--X-0-0-----|
D-X-X-0--3--X-0-0-3-5-|
G-X-X-0--3--X-0-0-3-5-|
D---------------------|


Solo Rhythm:
g----------------------------------------------------0-|
b-2-2---2--2-2-----2-2---2--2-2-----5-5---5--5-5-----0-|
G-2-2---2--2-2-----2-2---2--2-2-----5-5---5--5-5-----0-|
D-2-2---2--2-2-----2-2---2--2-2-----5-5---5--5-5-----0-|
G-2-2---2--2-2-----2-2---2--2-2-----5-5---5--5-5-----0-|
D------------------------------------------------------|

Then goes into this:
g-------0---0---0-----||
b-0-----1---3---5---0-||
G-0-----0---0---0---0-||
D-0-----2---3---5---0-||
G-0-----0---0---0---0-||
D---------------------||


Last Part(Slow):
g-0-----5-----0-----5-----0----7----5----0-||
b-0-----5-----0-----5-----0----7----5----0-||
G-0-----5-----0-----5-----0----7----5----0-||
D-0-----5-----0-----5-----0----7----5----0-||
G-0-----5-----0-----5-----0----7----5----0-||
D------------------------------------------||


Sorry No Solo's to lazy, hope this helps. And let the Crowes keep rockin for years to come.

            
            
Suggest correction
Creating personal tab
Creating personal tab
You can edit any tab online and save it as your Personal.

You can edit, replace or remove any tab part or add personal notes – all changes will be seen only by you.

Personal tabs can be accessed anytime from any device, even offline.
Learn more »
Give kudos to tab author, rate the tab!
1 2 3 4 5
comments
print report bad tab
guest
Wanna post a correction for this tab? Suggest correction