Oops, an error
Loading. Please wait.

Only Halfway To Everywhere tab

version 2
version 2

Whole song

1,646 views 3 this week
no commentswrite comment
1 2 3 4 5
x 3
add to favorites
×
Save as Personal and add changes to this tab that will be seen only by you. Learn more ›
×
You can save this tab as Personal to edit and correct it or add notes. All changes will be seen only by you. Learn more »
launch autoscroll
font size
0
reset
how to read this tab
guitar tuner
edit
Autoscroll
slow
fast
+/-
esc
set tempo
stop
Song Title: (Only) Halfway To Everywhere
TBC Original? Yes
Written By: Chris and Rich Robinson
Recording Session: Three Snakes and One Charm
Record: Three Snakes and One Charm
Live Debut: 02/23/1999
Shows: 58 times played live
Related Song: Halfway To Everywhere Jam
Notes: none at this time...

-------------------------
The above information was taken from www.crowesbase.com

Tuning: DGDGBD (Open G)

Intro
D---------------------------------|
B----------3----------------------|
G------3-5---5-3-------3---3h5-3--| x2
D--3-5-----------5-3-5---5--------|
G---------------------------------|
D---------------------------------|

Verse
D------------------------|
B--/12--12-12-x-x-12-12--|
G--/10--10-10-x-x-10-10--|
D--/12--12-12-x-x-12-12--|
G------------------------|
D------------------------|

D----------------------------------------------------|
B--5--5-5-x-x-5-5--4--4-4-x-x-4-4--3--3-3-x-x-3-4-5--|
G--3--3-3-x-x-3-3--2--2-2-x-x-2-2--1--1-1-x-x-1-2-3--|
D--5--5-5-x-x-5-5--4--4-4-x-x-4-4--3--3-3-x-x-3-4-5--|
G----------------------------------------------------|
D----------------------------------------------------|

Chorus
                 | 1, 2, 3 ending | 4 ending
D----------------|-------         |---------------|
B-----------4--4-|-5--5--         |--5----4----3--|
G-----------2--2-|-3--3--         |--3----2----1--|
D--3-4-5-5--4--4-|-5--5--         |--5----4----3--|
G--5-6-7-7-------|-------         |---------------|
D--3-4-5-5-------|-------         |---------------|

Repeat the chorus four times, and on the fourth time, proceed to the fourth ending, 
you hold out the chords tabbed above.  Listen to the song for timing.

Solo rhythm
                 | 1, 2 ending
D----------------|-------|
B----------------|-1--0--|
G----------------|-0--0--|
D----------------|-2--0--|
G--3-3-5-5-3b4-0-|----0--|
D----------------|-------|

3 ending
D---------------------------|
B--1--0--1--0--1-0-1-0-1-0--|
G--0--0--0--0--0-0-0-0-0-0--|
D--2--0--2--0--2-0-2-0-2-0--|
G-----0-----0----0---0---0--|
D---------------------------|

Repeat this rhythm part under the solo three times, and on the third time, play the 
ending, which then leads back into the chorus.

            
            
Suggest correction
Creating personal tab
Creating personal tab
You can edit any tab online and save it as your Personal.

You can edit, replace or remove any tab part or add personal notes – all changes will be seen only by you.

Personal tabs can be accessed anytime from any device, even offline.
Learn more »
Give kudos to tab author, rate the tab!
1 2 3 4 5
comments
print report bad tab
guest
You may want to rate the tab now too:
select rating
Wanna post a correction for this tab? Suggest correction