Oops, an error
Loading. Please wait.

Remedy tab

version 1
version 1

Whole song

Interactive

65,594 views 69 this week
13 commentsread comments
1 2 3 4 5
x 26
add to favorites
×
Save as Personal and add changes to this tab that will be seen only by you. Learn more ›
×
You can save this tab as Personal to edit and correct it or add notes. All changes will be seen only by you. Learn more »
launch autoscroll
font size
0
reset
how to read this tab
guitar tuner
backing track
0:00
0:00
edit
Autoscroll
slow
fast
+/-
esc
set tempo
stop
Author
Unregistered
Remedy by the Black Crowes
Transcribed by Alexander van Elsas
(email :a.vanelsas@io.tudelft.nl)

[Intro]
     F5   E5  C5         Eb5 D5  Bb5
e|--------------------------------------|
B|--------------------------------------|
G|---10---9--------------8---7----------|(repeat this 2 times)
D|---10---9---10---------8---7---8------|
A|---8----7---10---------6---5---8------|                                 
E|------------8------------------6------|
           hold this chord   same here
           a litle longer
            
[Verse]
    D  D    F(A bass)  D     D 
e|--5--5----5----5--5--5--5--5--|
B|--5--5----5h6--6--6--5--6--5--|
G|--5--5----5----5--5--5--5--5--|(repeat 2 times)
D|--5--5----5h7--7--7--5--7--5--|
A|------------------------------|          
E|------------------------------|
Remember Keith Richards from the Stones
He used to do these little figures all the
time!

    C  C    Eb(G Bass) C     C 
e|--3--3----3----3--3--3--3--3--|
B|--3--3----3h4--4--4--3--4--3--|
G|--3--3----3----3--3--3--3--3--|(repeat 2 times)
D|--3--3----3h5--5--5--3--5--3--|
A|------------------------------|          
E|------------------------------|
During the verses, these two parts are played repeatedly.
Then about half way through a verse they jump back to the intro riff.
(For example, during verse 1 they switch on : If I come on like a dream)

[Chorus]
   Bb5  C#5  Ab5  Eb5
e|--------------------|
B|--------------------|
G|-------6---------8--|(Repeat this during the chorus)
D|--8----6----6----8--|
A|--8----4----6----6--|
E|--6---------4-------|

Baby, baby why can't you sit still?
Who killed that bird out on you window sill?
Are you the reason that he broke his back?
Did I see you laugh about that?
If I come on like a dream?
Would you let me show you what I mean?
If you let me come on inside?
Will you let it glide?

Can I have some remedy?
Remedy for me please.
Cause if I had some remedy
I'd take enough to please me.

Baby, baby why did you dye your hair?
Why you always keeping with your mother's dare?
Baby why's who's who, who know you too?
Did the other children scold on you?
If I come on like a dream?
Would you let me show you what I mean?
If you let me come on inside?
Will you let it slide?

            
            
Suggest correction
Creating personal tab
Creating personal tab
You can edit any tab online and save it as your Personal.

You can edit, replace or remove any tab part or add personal notes – all changes will be seen only by you.

Personal tabs can be accessed anytime from any device, even offline.
Learn more »
comments
print report bad tab
13 comments total. Showing first comments.
0 reply
Robnfguitarplay 42 Jun 09, 2006 01:16 PM

A decent tab but has a few mistakes.

Intro:
F E C Eb D Bb
e|--------------------------------------||
B|---10---9---8----------8---7---6------||
G|---10---9---9----------8---7---7------|| repeat this 2 times
D|---10---9---10---------8---7---8------||
A|---8----7---10---------6---5---8------||
E|------------8------------------6------||
/|\ /|\
| |
| |
hold this chord same here
a little longer

0 reply
Robnfguitarplay 42 Jun 09, 2006 01:48 PM

Verse :
----D7-D7--C6-D7-D7-D7-C6?D7?D7--
e|--5--5----5----5--5--5--5--5--||
B|--6--6----5h6--6--6--5--6--5--||
G|--5--5----5----5--5--5--5--5--|| repeat 2 times
D|--7--7----5h7--7--7--5--7--5--||
A|------------------------------||
E|------------------------------||
/|\
|

Remember Keith Richards from the Stones
He used to do these little figures all the
time!
|
\|/

----C7-C7---C7---C7-C7-Bb6-C7---
e|--3--3----3----3--3--3--3--3--||
B|--4--4----3h4--4--4--3--4--3--||
G|--3--3----3----3--3--3--3--3--|| repeat 2 times
D|--5--5----3h5--5--5--3--5--3--||
A|------------------------------||
E|------------------------------||

0 reply
Robnfguitarplay 42 Jun 09, 2006 01:52 PM

The chorus uses full bar chords from Bb - Db - Ab - Eb.

guest
Wanna post a correction for this tab? Suggest correction