Oops, an error
Loading. Please wait.
We have Chord Pro version of She Talks To Angels.
It's the closest thing you can get to the original song and it has interactive parts. Check out the tab »
×
23,994 views 12 this week
no commentswrite comment
1 2 3 4 5
x 9
add to favorites
×
Save as Personal and add changes to this tab that will be seen only by you. Learn more ›
×
You can save this tab as Personal to edit and correct it or add notes. All changes will be seen only by you. Learn more »
launch autoscroll
font size
0
reset
guitar tuner
backing track
0:00
0:00
edit
Autoscroll
slow
fast
+/-
esc
set tempo
stop
Author
Unregistered
BASSLINE FOR SHE TALKS TO ANGELS
                           As recorded by Black Crowes

G|------------------|-----------------|---------------|---------------|
D|------------4-----|-----------------|---------------|--------2-2-2--|
A|-2--2--4/-6---6\--|-----------------|---------------|---------------|
E|----------------5-|-(5)-5-5--5-5-5\-|-0--0--5-4-2-0-|-(0)-----------|

G|------------------|---------------|---------------|------|----------------|-------------|
D|------------4-----|---------------|---------------|------|----------------|-------------|
A|-2--2--4/-6---6\--|---------------|---------------|------|----------------|-------------|
E|----------------5-|-5-5-5--5-5-5\-|-0--0--5-4-2-0-|-(0)--|-0--0-0-5-4-2-0-|-(0)-------0-|

G||-----------------|------------|----------------|-----------|----------------|------------|
D||o----------------|------------|----------------|-----------|----------------|------------|
A||o----------------|------------|----------------|-----------|----------------|------------|
E||--0--0-0-2-0-2-0-|-0-------0--|-0--0-0-2-0-2-0-|-0-------0-|-0--0-0-2-0-2-0-|-0-------0--|

G|----------------|-----------------||------------------|------------------|
D|----------------|-------2------2--||------------4-----|------------------|
A|----------------|-----------------||-2--2--4/-6---6\--|------------------|
E|-0--0-0-2-0-2-0-|-(0)-0----0-0----||----------------5-|-(5)-5-5--5-5-5\--|

G|---------------|---------------|------------------|------------------|
D|---------------|--------2-2-2--|------------4-----|------------------|
A|---------------|---------------|-2--2--4/-6---6\--|------------------|
E|-0--0--5-4-2-0-|-(0)-----------|----------------5-|-(5)-5-5--5-5-5\--|

   1.
G|--------------|-----------|----------------|------------||
D|--------------|-----------|----------------|-----------o||
A|--------------|-----------|----------------|-----------o||
E|-0----5-4-2-0-|-(0)-------|-0--0-0-5-4-2-0-|-0------0---||

   2.
G|---------------|---------------------||---------------|--------------------|
D|---------------|---------------------||---------------|-----2-2-2-----2----|
A|---------------|---------------------||---------------|--------------------|
E|-0--0--5-4-2-0-|-(0)-0-0-0-0-0-0-2-4-||-5--5--5-5-5-0-|-(0)-------0-0---0--|

G|---------------------|-------------------|---------------------|--------------------|
D|---------------------|-----2-2-2-----2---|---------------------|-----2-2-2-----2----|
A|---------------------|-------------------|---------------------|--------------------|
E|-5-5-5-5-5-5-5-5-5-0-|-(0)-------0-0---0-|-5-5-5-5-5-5-5-5-5-0-|-(0)-------0-0---0--|

G||-------------------||--------------|-------|-------|-------|------|-----|-------||------|
D||o-----------------o||--------------|-------|-------|-------|------|-----|-------||------|
A||o-----------------o||--------------|-------|-------|-------|------|-----|-------||------|
E||--5-5-5-5-5-5-5-5--||-0----5-4-2-0-|-(0)---|-(0)---|-(0)---|-(0)--|-----|-----0-||-0----|

G|----------|-------|-----------|----------|-------------|----------|--------------||
D|----------|-------|-----------|----------|-------------|----------|--------------||
A|----------|-------|-----------|----------|-------------|----------|--------------||
E|-(0)----0-|-0-----|-(0)----0--|-0--------|-(0)-------0-|-0--------|-0-------12\--||

G|------------------|-----------------|---------------|---------------|
D|------------4-----|-----------------|---------------|--------2-2-2--|
A|-2--2--4/-6---6\--|-----------------|---------------|---------------|
E|----------------5-|-(5)-5-5--5-5-5\-|-0--0--5-4-2-0-|-(0)-----------|

G|------------------|-----------------|---------------|-----------------|
D|------------4-----|-----------------|---------------|-------2------2--|
A|-2--2--4/-6---6\--|-----------------|---------------|-----------------|
E|----------------5-|-(5)-5-5--5-5-5\-|-0--0--5-4-2-0-|-(0)-0----0-0----|

G|------------------|-----------------|---------------|-----------------|
D|------------4-----|-----------------|---------------|-----------------|
A|-2--2--4/-6---6\--|-----------------|---------------|-----------------|
E|----------------5-|-(5)-5-5--5-5-5\-|-0--0--5-4-2-0-|-(0)-0-0--0-0-0--|

G|------------------|----------------------|----4------------|----------------------------|
D|------------4-----|---------7------7-----|-----------4-----|----------------------------|
A|-2--2--4/-6---6\--|----------------------|-2----4/-6---6\--|-----------------------4-0--|
E|----------------5-|-(5)-5-5----5-5---5-5-|---------------5-|-(5)-5-5-5-5-5-5-5-5-5------|

G|------------------|------------------|----------|------*|
D|------------4-----|------------------|----------|------*|
A|-2--2--4/-6---6\--|------------------|----------|------*|
E|----------------5-|-(5)-5-5-5-5-5-5\-|-0--------|-(0)--*|

************************************

| /    Slide up
| \    Slide down
| (n)  Ghost note

************************************

            
            
Suggest correction
Creating personal tab
Creating personal tab
You can edit any tab online and save it as your Personal.

You can edit, replace or remove any tab part or add personal notes – all changes will be seen only by you.

Personal tabs can be accessed anytime from any device, even offline.
Learn more »
comments
print report bad tab
guest
Wanna post a correction for this tab? Suggest correction