Oops, an error
Loading. Please wait.

Soul Singin tab

version 2
version 2

Whole song

3,405 views 1 this week
2 commentsread comments
1 2 3 4 5
3 more votes to show rating
add to favorites
×
Save as Personal and add changes to this tab that will be seen only by you. Learn more ›
×
You can save this tab as Personal to edit and correct it or add notes. All changes will be seen only by you. Learn more »
launch autoscroll
font size
0
reset
how to read this tab
guitar tuner
edit
Autoscroll
slow
fast
+/-
esc
set tempo
stop
I'm not positive about this.  Please comment with corrections if you notice anything wrong.

Soul Singin'
Black Crowes
CAPO 1
notes relative to Capo


e-----------------------------|-----------------------------------|
B-----------------------------|-----------------------------------|
G-------------------------9~--|------------------------------9~---|
D---------------------6-------|-----------------------------------|
A------7------7---------7-----|-------7-------7-----8h10p8--------|
E-0h9----0h9-----0h9----------|---0h9-----0h9-----0--------0------|

e-----------------------------|-----------------------------------|
B-----0-----------0-----------|-----------------------------------|
G---------6b9r6------4h6p4p1--|-----------------------------------|
D-4---------------------------|---6-7--9b11r9--7--6---------7~----|
A-----------------------------|-----------------------------------|
E-----------------------------|--------------------------0--------|

e-----------------------------|-----------------------------------|
B-----------------------------|-----------------------------------|
G-------------------------9~--|------------------------------9~---|
D---------------------6-------|-----------------------------------|
A------7------7---------7-----|-------7-------7-----8h10p8--------|
E-0h9----0h9-----0h9----------|---0h9-----0h9-----0--------0------|

arpegio down
e------or-2-|-----or--0--|
B---7--|--4-|--5--|---2--|
G---8--|--4-|--6--|---2--|
D---9--|--4-|--7--|---2--|
A---9--|-/2-|--7--|---0--|
E--0h7-|----|--5--|------|
lay me down....lay me down

e-----------------------------|-----------------------------------|
B-----0-----------0-----------|-----------------------------------|
G---------6b9r6------4h6p4p1--|-----------------------------------|
D-4---------------------------|---6-7--9b11r9--7--6---------7~----|
A-----------------------------|-----------------------------------|
E-----------------------------|--------------------------0--------|


prechorus
e----------------------------------------------------------------|
B---------------------------4----4----2----2---------------------|
G---------------------------4----4----2----2---------------------|
D---------------------------4----4----2----2---------------------|
A-------7-------7-----------2----2----0----0---------------------|
E--0h9-----0h9-----0h9-------------------------------------------|

chorus

e----------------------------------------------------------------|
B----------------------------------------------------------------|
G----------------------------------------------------------------|
D--2---2---2----2---2---2----2---2---2----2---2------------------|
A--2---4---6----6---7---4----7---6---7----4---2------------------|
E--0---2---4----5---5--------5---4---4----2---0------------------|

            
            
Suggest correction
Creating personal tab
Creating personal tab
You can edit any tab online and save it as your Personal.

You can edit, replace or remove any tab part or add personal notes – all changes will be seen only by you.

Personal tabs can be accessed anytime from any device, even offline.
Learn more »
Give kudos to tab author, rate the tab!
1 2 3 4 5
comments
print report bad tab
2 comments total.
0 reply
BrainDamage 2,681 Jan 16, 2009 10:48 AM

This song is in open F, not standard.

0 reply
willg715 73 Dec 16, 2009 05:34 PM

yeah but i transposed it in standard so people like me who don't like taking the time to retune their guitars can play it

guest
You may want to rate the tab now too:
select rating
Wanna post a correction for this tab? Suggest correction