Oops, an error
Loading. Please wait.

Under A Mountain tab

2,206 views 1 this week
no commentswrite comment
1 2 3 4 5
1 last vote to show rating
add to favorites
×
Save as Personal and add changes to this tab that will be seen only by you. Learn more ›
×
You can save this tab as Personal to edit and correct it or add notes. All changes will be seen only by you. Learn more »
launch autoscroll
font size
0
reset
how to read this tab
guitar tuner
edit
Autoscroll
slow
fast
+/-
esc
set tempo
stop
The Black Crowes
Song Title: Under A Mountain
TBC Original? Yes
Written By: Chris and Rich Robinson
Recording Session: Amorica, Three Snakes and One Charm
Record: Three Snakes and One Charm
Live Debut: 12/19/1995
Shows: 95 times played live
Notes: It is reported that this song was worked on during the sessions for Amorica, 
no studio recording from those sessions has been confirmed.

------------------------------
The above information was taken from www.crowesbase.com

I found the basis for this tab on a Black Crowes forum, though I do not remember the username of the person
who posted it. I made some minor changes.

Tuning: DGDGBD (Open G)

Intro/Verse
D---9--9-12-12-12----5-5-7-7-7---3-3-5-5-5----3-3-5-5-5--|
B--12-12-10-10-10----7-7-5-5-5---5-5-3-3-3----5-5-3-3-3--|
G---0--0--0--0--0----0-0-0-0-0---0-0-0-0-0----0-0-0-0-0--|
D---0--0--0--0--0----0-0-0-0-0---0-0-0-0-0----0-0-0-0-0--|
G---0--0--0--0--0----0-0-0-0-0---0-0-0-0-0----0-0-0-0-0--|
D--------------------------------------------------------|

Listen to the song for the full rhythm.

Chorus
D--------------------|
B--------------------|
G--------4-----5-----|
D--2--3--x--4--x--5--| x 4
G--x--x--4--x--5--x--|
D--2--3-----4-----5--|


Bridge
D-----------|--------------------|
B-----------|--7----5----2----0--|
G--0-2-4-5--|--7----5----0----0--|
D--0-x-x-x--|--x----5----0----0--| x2
G--0-2-4-5--|--7----5----2----0--|
D-----------|--------------------|

Do not play the pickups on the repeat.

Solo Rhythm
D--0--0--0--0--0--0--0--0--------------0--0--0--0--0--0--0--0-0-0--0--0--|
B--2--2--2--2--1--1--1--1--------------2--2--2--2--1--1--1--7-7/8--8--8--|
G--0--0--0--0--0--0--0--0--0--5--2--3--0--0--0--0--0--0--0--0-0-0--0--0--|
D--3--3--3--3--2--2--2--2--0--x--x--x--3--3--3--3--2--2--2--7-7/9--9--9--|
G--------------------------0--5--2--3-----------------------0-0-0--0--0--|
D------------------------------------------------------------------------|

The timing of the last measure here is tricky.  Listen to the song for the strumming 
and timing.

            
            
Suggest correction
Creating personal tab
Creating personal tab
You can edit any tab online and save it as your Personal.

You can edit, replace or remove any tab part or add personal notes – all changes will be seen only by you.

Personal tabs can be accessed anytime from any device, even offline.
Learn more »
Give kudos to tab author, rate the tab!
1 2 3 4 5
comments
print report bad tab
guest
You may want to rate the tab now too:
select rating
Wanna post a correction for this tab? Suggest correction