Oops, an error
Loading. Please wait.

Virtue And Vice tab

2,341 views 3 this week
no commentswrite comment
1 2 3 4 5
2 more votes to show rating
add to favorites
×
Save as Personal and add changes to this tab that will be seen only by you. Learn more ›
×
You can save this tab as Personal to edit and correct it or add notes. All changes will be seen only by you. Learn more »
launch autoscroll
font size
0
reset
how to read this tab
guitar tuner
edit
Autoscroll
slow
fast
+/-
esc
set tempo
stop
The Black Crowes
Song Title: Virtue And Vice
TBC Original? Yes
Written By: Chris and Rich Robinson
Recording Session: By Your Side
Record: By Your Side, Live
Live Debut: 10/28/1998
Shows: 156 times played live
Notes: Regarding the January, 1998 version; the words and music of the verses are
to the verses of Then She Said My Name, the chorus is from Virtue And Vice, but with 
lyrics.

Rich has commented that he tried out over a dozen different verse structures around the
chorus for Virtue And Vice, which was the only element of the song that remained
from its inception. The January, 1998 version, with the Then She Said My Name verse 
must be one example of what Rich was talking about.

--------------------------
The above information was taken from www.crowesbase.com

Tuning: DGDGBD (Open G)

Thanks to jakethesnake from the Amorica2 boards, who provided the basis for this tab.

Intro/Verse
D---------------------------------------------------------------------|-----|
B------------8-8-8----------------------------------------------------|-----|
G--7--7--7\--9-9-9-7-7--0-0--7---10-10-10-10-10/12-12-12-x-x-12\-7-7--|-----|
D-----------------------0-0-------------------------------------------|-----|
G--7--7--7\--9-9-9-7-7--0-0--7---10-10-10-10-10/12-12-12-x-x-12\-7-7--|--6--|
D--0---------------------------0--------------------------------------|-----|

The last note hear is only played right before the pre-chorus.

Pre-Chorus          |Fill                              |Fill?
D-------------------|--------------|-------------------|-------|
B--5--5-6-5--3-0----|--------------|--3--3-4-3--1------|-------|
G--5-------------0--|------0---0---|--3-----------2----|-------|
D--5----------------|--0h2---2---2-|--3-------------3--|-------|
G--5----------------|--------------|--3----------------|-------|
D-------------------|--------------|-------------------|-------|

Rich might be playing a fill after the Bb chord, but due to the terrible mixing on the
Your Side album, it's hard to tell what it is.  Repeat the pre-chorus, and on the repeat,
of the fill, play the second ending:

2nd ending
D--------|
B--------|
G--------|
D--4-----|
G-----2--|
D--------|

Chorus
D-------------------------------------|
B------------------------4---3-3---2--|
G------------------------2---2-2---2--|
D------------------------4---4-4---2--|
G-----------2--4b5r4--2--2---2-2---2--|
D--0--3--4----------------------------|

Solo Rhythm
D----------------------|
B----------------------|
G--2-2--3-3--4-4--5-5--|
D----------------------|
G--2-2--3-3--4-4--5-5--|
D----------------------|

            
            
Suggest correction
Creating personal tab
Creating personal tab
You can edit any tab online and save it as your Personal.

You can edit, replace or remove any tab part or add personal notes – all changes will be seen only by you.

Personal tabs can be accessed anytime from any device, even offline.
Learn more »
Give kudos to tab author, rate the tab!
1 2 3 4 5
comments
print report bad tab
guest
You may want to rate the tab now too:
select rating
Wanna post a correction for this tab? Suggest correction