Oops, an error
Loading. Please wait.

Elder Misanthropy tab

version 2
version 2

Whole song

Interactive

1,065 views 1 this week
no commentswrite comment
1 2 3 4 5
1 last vote to show rating
add to favorites
×
Save as Personal and add changes to this tab that will be seen only by you. Learn more ›
×
You can save this tab as Personal to edit and correct it or add notes. All changes will be seen only by you. Learn more »
launch autoscroll
font size
0
reset
how to read this tab
guitar tuner
backing track
0:00
0:00
edit
Autoscroll
slow
fast
+/-
esc
set tempo
stop
Author
Difficulty
artist: the black dahlia murder
track: elder misanthropy
album: unhallowed


tuning is dropped C (dropped D, down 1 more step)

this tab is pretty much about 99% accurate. there might be one or
two small mistakes. also i have left out some obvious palm muted
notes or whatever. if you have enough skill to play the black
dahlia murder songs, you can figure it out.
            
 (0:00) - both guitars

 if you are good enough, you can hit the palm muted open notes
 between each of the higher notes in this riff
|--------------------------------------------------------------|
|--------------------------------------------------------------|
|--------------------------------------------------------------|
|--8---5----------7-5---------------------7-5------------------|
|--8---5--------------8-7-8-7-5h7p5-----------8-7-8-7-5h7p5----|
|--8---5-----0-0---------------------0-0-----------------------|
             m m                     m m
  
|--------------------------------------------------------------|
|--------------------------------------------------------------|
|--------------------------------------------------------------|
|--------------------------------------------------------------|
|-------7-8--7h8-------8-7--7h8--------------------------------|
|---8-8------------6-6-----------------------------------------|
    m m            m m

|--------------------------------------------------------------|
|--------------------------------------------------------------|
|--------------------------------------------------------------|
|-----------------7-5---------------------7-5------------------|
|---------------------8-7-8-7-5h7p5-----------8-7-8-7-5h7p5----|
|------------0-0---------------------0-0-----------------------|
             m m                     m m

|--------------------------------------------------------------|
|--------------------------------------------------------------|
|--------------------------------------------------------------|
|--------------------------------------------------------------|
|-------7-8--7h8-------8-7--7h8--------------------------------|
|---8-8------------6-6-----------------------------------------|
    m m            m m




 guitar 1 (first part)
|--------------------------------------------------------------|
|--------------------------------------------------------------|
|--------------------------------------------------------------|
|--------------------------------------------------------------|
|---------------------5555-4444-5555-7777-8888-7777-5555-4444--|
|--00--000--000--000-------------------------------------------|
  

 guitar 2 (first part)                                   A.H.
|--------------------------------------------------------------|
|--------------------------------------------------------------|
|--------------------------------------------------------------|
|---------------------3333-2222-3333-5555-7777-5555-3333----|
|--------------------------------------------------------------|
|--00--000--000--000-------------------------------------------|
  


 guitar 1 (second part)
|--------------------------------------------------------------|
|--------------------------------------------------------------|
|--------------------------------------------------------------|
|--------------------------------------------------------------|
|---------------------5555-4444-5555-7777-5555-4444-5555-1111--|
|--00--000--000--000-------------------------------------------|

 guitar 2 (second part)
|--------------------------------------------------------------|
|--------------------------------------------------------------|
|--------------------------------------------------------------|
|---------------------3333-2222-3333-5555-3333-2222-3333-------|
|--------------------------------------------------------5555--|
|--00--000--000--000-------------------------------------------|





 guitar 1 (beginning of riff)
|--------------------------------------------------------------------------|
|--------------------------------------------------------------------------|
|--------------------------------------------------------------------------|
|--------------------------------------------------------888-777-----------|
|----777-888---777-888-777-----------777-888-----777-888-------------------|
|--0---------0-------------10-10-8-8---------888---------------------------|

 guitar 2 (beginning of riff)
|--------------------------------------------------------------------------|
|--------------------------------------------------------------------------|
|--------------------------------------------------------------------------|
|--------------------------------------------------------------------------|
|----777-888---777-888-777-----------777-888-----777-888-10-10-10-888------|
|--0---------0-------------10-10-8-8---------888---------------------------|

 both guitars (ending of riff)
|----------------------------------------------------------------|
|----------------------------------------------------------------|
|-------------------------------7----9---10---12-----------------|
|----------------------------------------------------------------|
|----777-888---777-888-777------5----7----8---10-----------------|
|--0---------0-------------10------------------------------------|



 
from here just reuse the riffs above until:



 (1:15) - both guitars (4x)
|---------------------------------------------------------------|
|---------------------------------------------------------------|
|-------8p7--10--8--7--------8p7--10--8--7----------------------|
|---------------------------------------------------------------|
|---------------------------------------------------------------|
|--0--0----------------8--8-------------------------------------|
      m                   m

|---------------------------------------------------------------|
|---------------------------------------------------------------|
|---------8p7--10--8--7--------8p7p0--8p7-----------------------|
|---------------------------------------------------------------|
|---------------------------------------------------------------|
|--10--10----------------5--5-----------------------------------|
        m                   m



 (1:32) - both guitars
|----------------------------------------------------------------|
|----------------------------------------------------------------|
|----------------------------------------------------------------|
|-------------------------9--10---9---6--------------------------|
|-------------------------7---8---7---4--------------------------|
|--0-0-0--0-0--0-0--0-0------------------------------------------|

                                        A.H.
|----------------------------------------------------------------|
|----------------------------------------------------------------|
|----------------------------------------------------------------|
|----------------------------------------------------------------|
|---------------------------5---------------------------------|
|--0-0-0--0-0--0-0--0-0---0---8--7--0--5-------------------------|



 (1:49) - both guitars (play 2x)
|----------------------------------------------------------------|
|----------------------------------------------------------------|
|----------------------------------------------------------------|
|----------------------------------------------------------------|
|--777--888--10-10-10--888--777--888--10-10-10--888--777---------|
|----------------------------------------------------------------|

 (play 2x also)
|----------------------------------------------------------------|
|----------------------------------------------------------------|
|----------------------------------------------------------------|
|----------------------------------------------------------------|
|--555--777--888--777--555--888--10-10-10--888--777--------------|
|----------------------------------------------------------------|

.. and just reuse the riffs again until the end.


            
            
Suggest correction
Creating personal tab
Creating personal tab
You can edit any tab online and save it as your Personal.

You can edit, replace or remove any tab part or add personal notes – all changes will be seen only by you.

Personal tabs can be accessed anytime from any device, even offline.
Learn more »
Give kudos to tab author, rate the tab!
1 2 3 4 5
comments
print report bad tab
guest
You may want to rate the tab now too:
select rating
Wanna post a correction for this tab? Suggest correction