Oops, an error
Loading. Please wait.
We have an official What A Horrible Night To Have A Curse tab made by UG professional guitarists. Check out the tab »
×

What A Horrible Night To Have A Curse tab

94,890 views 66 this week
9 commentsread comments
1 2 3 4 5
x 22
add to favorites
×
Save as Personal and add changes to this tab that will be seen only by you. Learn more ›
×
You can save this tab as Personal to edit and correct it or add notes. All changes will be seen only by you. Learn more »
launch autoscroll
font size
0
reset
how to read this tab
guitar tuner
edit
Autoscroll
slow
fast
+/-
esc
set tempo
stop
Author
Difficulty
Tabbers playing skills
Artist: The Black Dahlia Murder
Song: What a horrible night to have a curse
Album: Nocturnal
Copyright: The Black Dahlia Murder 2007
Tuning: C/F/A#/D#/G/C (C Standard)
Tab: lord of dead

I didnt add any Palm Mutes or anything because that's so much work
and it was late when i did this tab :) Sorry, but i think
you will find them on your own :) Enjoy !

Guitar 1: John Kempainen
Guitar 2: Brian Eschbach

Intro

Guitar 1

C |------------------------------------------------|
G |------------------------------------------------|
D#|------------------------------------------------|
A#|------------------------------------------------|
F |--------4-------------------4-------------------|
C |111-111-2-111-111-1-111-111-2-111-111-4-111-111-|

C |-------------------------------------------------|
G |-------------------------------------------------|
D#|-------------------------------------------------|
A#|-------------------------------------------------|
F |4-------------------4----------------------------|
C |2-111-111-1-111-111-2-111-111-4-111-111--111-111-|

Guitar 2

C |------------------------------------------------|
G |------------------------------------------------|
D#|------------------------------------------------|
A#|------------------------------------------------|
F |--------4-------------------4---------2---------|
C |111-111-2-111-111-4-111-111-2-111-111---111-111-|

C |-------------------------------------------------|
G |-------------------------------------------------|
D#|-------------------------------------------------|
A#|-------------------------------------------------|
F |4-------------------4---------2------------------|
C |2-111-111-4-111-111-2-111-111---111-111--111-111-|

Verse 1

Guitar 1

C |------------------------------------------------|
G |------------------------------------------------|
D#|------------------------------------------------|
A#|------------------------------------------------|
F |4-------------------4---------4-3-7-------------|
C |2-111-111-4-111-111-2-111-111-2-1-5-------------|

C |------------------------------------------------|
G |------------------------------------------------|
D#|------------------------------------------------|
A#|------------------------------------------------|
F |4-------------------4---------------------------|
C |2-111-111-4-111-111-2-111-111-222-111-555-------| x2

Guitar 2

C |------------------------------------------------|
G |------------------------------------------------|
D#|------------------------------------------------|
A#|------------------------------------------------|
F |4-------------------4---------4-3-7-------------|
C |2-111-111-1-111-111-2-111-111-2-1-5-------------|

C |------------------------------------------------|
G |------------------------------------------------|
D#|------------------------------------------------|
A#|------------------------------------------------|
F |4-------------------4---------------------------|
C |2-111-111-1-111-111-2-111-111-222-111-555-------| x2

Riff 2

Guitar 1 & 2

C |------------------------------------------------|
G |------------------------------------------------|
D#|------------------------------------------------|
A#|------------------6---------7-7-6-7-------------|
F |--------7---------4---------5-5-4-5-------------|
C |444-444-5-444-444-4-444-444-5-5-4-5-------------|

C |------------------------------------------------|
G |------------------------------------------------|
D#|------------------------------------------------|
A#|------------------6---------7-7-6---------------|
F |--------7---------4---------5-5-4-3-------------|
C |444-444-5-444-444-4-444-444-5-5-4-1-------------|

Verse 2

Guitar 1 & 2

C |------------------------------------------------|
G |------------------------------------------------|
D#|------------------------------------------------|
A#|------------------------------------------------|
F |4---------6---------4---------------------------|
C |2-111-111-4-111-111-2-111-111---111-111---------|

C |------------------------------------------------|
G |------------------------------------------------|
D#|------------------------------------------------|
A#|------------------------------------------------|
F |4---------6---------4---------4--7~4-3----------|
C |2-111-111-4-111-111-2-111-111-2--5~2-1----------|

C |------------------------------------------------|
G |------------------------------------------------|
D#|------------------------------------------------|
A#|------------------------------------------------|
F |4---------6---------4-3~~~~~--------------------|
C |2-111-111-4-111-111-2-1~~~~~--------------------|

Bridge Guitar 1

C |------------------------------------------------|
G |------------------------------------------------|
D#|------------------------------------------------|
A#|--------4---------6-----------------------------|
F |--------2---------4---------------------2-------|
C |111-111---111-111---5~7-4-5-2-4-1-4-1-4---1-----|
                           * * * * * * * * * *
Bridge Guitar 2

C |------------------------------------------------|
G |------------------------------------------------|
D#|------------------------------------------------|
A#|--------4---------6-----------------------------|
F |--------2---------4--4-5---4-------------5------|
C |111-111---111-111--------7---5-7-4-7-4-7---4----|
   *** ***                        * * * * * * *

Verse 3

Guitar 1

C |------------------------------------------------|
G |------------------------------------------------|
D#|------------------------------------------------|
A#|------------------------------------------------|
F |--------2-----------2-----------4-----------4---|
C |4-1-4-1---1-4-1-4-1---1-5-2-5-2---2-5-2-5-2---2-|

C |-------------------------------------------------|
G |-------------------------------------------------|
D#|-------------------------------------------------|
A#|-------------------------------------------------|
F |--------2-----------2----2-----------------------|
C |4-1-4-1---1-4-1-4-1---1----2-5-2-4-2-5-2-222-222-|

C |-------------------------------------------------|
G |-------------------------------------------------|
D#|-------------------------------------------------|
A#|-------------------------------------------------|
F |--------2-----------2-----------2------------2---|
C |4-1-4-1---1-4-1-4-1---1--5-2-5-2---2-5-2-5-2---2-|


C |-------------------------------------------------|
G |-------------------------------------------------|
D#|-------------------------------------------------|
A#|----------------------------------6-----------6~-|
F |--------5-----------5----8-4-8-4----4-8-4-8-4----|
C |7-4-7-4---4-7-4-7-4---4--------------------------|

Guitar 2

C |------------------------------------------------|
G |------------------------------------------------|
D#|------------------------------------------------|
A#|------------------------------------------------|
F |--------2-----------2-----------4-----------4---|
C |4-1-4-1---1-4-1-4-1---1-5-2-5-2---2-5-2-5-2---2-|

C |-------------------------------------------------|
G |-------------------------------------------------|
D#|-------------------------------------------------|
A#|-------------------------------------------------|
F |--------5-----------5----5---4---2---4-----------|
C |7-4-7-4---4-7-4-7-4---4----2---2---2---2-222-222-|

C |-------------------------------------------------|
G |-------------------------------------------------|
D#|-------------------------------------------------|
A#|-------------------------------------------------|
F |--------5-----------5----4-0-4-0-5-0-4-0-4-0-5-0-|
C |7-4-7-4---4-7-4-7-4---4--------------------------|

C |-------------------------------------------------|
G |-------------------------------------------------|
D#|---------------------------------4-----------4~6-|
A#|--------4-----------4----6-3-6-3---3-6-3-6-3-----|
F |5-2-5-2---2-5-2-5-2---2--------------------------|
C |-------------------------------------------------|

Riff 3 Guitar 1

C |------------------------------------------------|
G |------------------------------------------------|
D#|------------------------------------------------|
A#|------------------------------------------------|
F |4---------6---------4---------------------------|
C |2-111-111-4-111-111-2-111-111-111-111-111-------|

C |------------------------------------------------|
G |------------------------------------------------|
D#|------------------------------------------------|
A#|------------------------------------------------|
F |4---------6---------4---------------------------|
C |2-111-111-4-111-111-2-111-111-----111-111-------|

C |------------------------------------------------|
G |------------------------------------------------|
D#|------------------------------------------------|
A#|------------------------------------------------|
F |4-------------------2---------------------------|
C |2-111-111-4-111-111---111-111-5-111-111---------|

C |------------------------------------------------|
G |------------------------------------------------|
D#|------------------------------------------------|
A#|------------------------------------------------|
F |4---------6---------4---------------------------|
C |2-111-111-4-111-111-2-111-111-----111-111-------|

Riff 3 Guitar 2

C |------------------------------------------------|
G |------------------------------------------------|
D#|------------------------------------------------|
A#|------------------------------------------------|
F |4---------6---------4---------------------------|
C |2-111-111-4-111-111-2-111-111-111-111-111-------|

C |------------------------------------------------|
G |------------------------------------------------|
D#|------------------------------------------------|
A#|------------------------------------------------|
F |4---------6---------4---------------------------|
C |2-111-111-4-111-111-2-111-111-----111-111-------|

C |------------------------------------------------|
G |------------------------------------------------|
D#|------------------------------------------------|
A#|------------------------------------------------|
F |4-----------------------------------------------|
C |2-111-111-1-111-111-4-111-111-2-111-111---------|

C |------------------------------------------------|
G |------------------------------------------------|
D#|------------------------------------------------|
A#|------------------------------------------------|
F |4---------6---------4---------------------------|
C |2-111-111-4-111-111-2-111-111-----111-111-------|

Riff 2

Guitar 1 & 2

C |------------------------------------------------|
G |------------------------------------------------|
D#|------------------------------------------------|
A#|------------------6---------7-7-6-7-------------|
F |--------7---------4---------5-5-4-5-------------|
C |444-444-5-444-444-4-444-444-5-5-4-5-------------|

C |------------------------------------------------|
G |------------------------------------------------|
D#|------------------------------------------------|
A#|------------------6---------7-7-6---------------|
F |--------7---------4---------5-5-4-3-------------|
C |444-444-5-444-444-4-444-444-5-5-4-1-------------| x2

Verse 3

Guitar 1

C |-------------------------------------------------|
G |-------------------------------------------------|
D#|----------------2--------------------------------|
A#|4---4---4---4-------4----6---6---6---6---7---6---|
F |-------------------------------------------------|
C |--2---2---2---2---2---2----0---0---0---0---0---0-|

C |-------------------------------------------------|
G |-------------------------------------------------|
D#|------------6------------------------------------|
A#|7---7---7-------9---7----6---6---6---7---6-------|
F |--0---0---0---0---0---0----------------------7---|
C |---------------------------4---4---4---4---4---4-|

C |------------------------------------------------|
G |------------------------------------------------|
D#|----------------2-------------------------------|
A#|4---4---4---4-------4---6---6---6---6---7---6---|
F |------------------------------------------------|
C |--2---2---2---2---2---2---4---4---4---4---4---4-|

C |-------------------------------------------------|
G |-------------------------------------------------|
D#|----------------1--------------------------------|
A#|3---3---3---3-------3---4---4---4---4---4---4----|
F |-------------------------------------------------|
C |--1---1---1---1---1---1---2---2---2---2---2---2--| x2

Verse 3

Guitar 2

C |-------------------------------------------------|
G |-------------------------------------------------|
D#|-------------------------------------------------|
A#|-------------------------------------------------|
F |----------------4--------------------------------|
C |5-2-5-2-5-2-5-2---2-5-2--4-0-4-0-4-0-4-0-5-0-4-0-|

C |--------------------------------------------------|
G |--------------------------------------------------|
D#|--------------------------------------------------|
A#|--------------------------------------------------|
F |4---4---4---7---5---4---2---2---2---4---2---------|
C |--5---5---5---5---5---5---4---4---4---4---4--4--4-|

C |-------------------------------------------------|
G |-------------------------------------------------|
D#|-------------------------------------------------|
A#|-------------------------------------------------|
F |----------------4--------------------------------|
C |5-2-5-2-5-2-5-2---2-5-2--4-0-4-0-4-0-4-0-5-0-4-0-|

C |------------------------------------------------|
G |------------------------------------------------|
D#|------------------------------------------------|
A#|------------------------------------------------|
F |----------------2-------------------------------|
C |4-1-4-1-4-1-4-1---1-4-1-5-2-5-2-5-2-5-2-5-2-5-2-| x2

Riff 4+Interlude Solo

Guitar 1

C |----------------------------------------------------|
G |----------------------------------------------------|
D#|----------------------------------------------------|
A#|----------------------------------------------------|
F |----------------------------------------------------|
C |7-7-7-7-7-7-7-7-7-7-7-7-5-5-5-5-5-5-5-5-5-5-4-4-4-4-|

C |----------------------------------------------------|
G |----------------------------------------------------|
D#|----------------------------------------------------|
A#|----------------------------------------------------|
F |----------------------------------------------------|
C |1~~~~~~~~~~~~~~~~~~~~~~~~~~~~~~~111-111-111-111-111-|

C |----------------------------------------------------|
G |----------------------------------------------------|
D#|----------------------------------------------------|
A#|----------------------------------------------------|
F |----------------------------------------------------|
C |5-5-5-5-5-5-5-5-5-5-5-5-4-4-4-4-4-4-4-4-4-4-1-1-1-1-|

C |----------------------------------------------------|
G |----------------------------------------------------|
D#|----------------------------------------------------|
A#|----------------------------------------------------|
F |----------------------------------------------------|
C |2~~~~~~~~~~~~~~~~~~~~~~~~~~~~~~~222-222-222-222-222-|

C |----------------------------------------------------|
G |----------------------------------------------------|
D#|----------------------------------------------------|
A#|----------------------------------------------------|
F |----------------------------------------------------|
C |7-7-7-7-7-7-7-7-7-7-7-7-5-5-5-5-5-5-5-5-5-5-4-4-4-4-|

C |----------------------------------------------------|
G |----------------------------------------------------|
D#|----------------------------------------------------|
A#|----------------------------------------------------|
F |----------------------------------------------------|
C |1~~~~~~~~~~~~~~~~~~~~~~~~~~~~~~~111-111-111-111-111-|

Riff 4+Interlude Solo

Guitar 2

C |----------------------------------------------------|
G |----------------------------------------------------|
D#|7-7-7-7-7-7-7-7-7-7-7-7-6-6-6-6-6-6-6-6-6-6-4-4-4-4-|
A#|----------------------------------------------------|
F |----------------------------------------------------|
C |----------------------------------------------------|

C |----------------------------------------------------|
G |----------------------------------------------------|
D#|----------------------------------------------------|
A#|6~~~~~~~~~~~~~~~~~~~~~~~~~~~~~~~--------------------|
F |----------------------------------------------------|
C |--------------------------------111-111-111-111-111-|

C |----------------------------------------------------|
G |----------------------------------------------------|
D#|6-6-6-6-6-6-6-6-6-6-6-6-4-4-4-4-4-4-4-4-4-4---------|
A#|--------------------------------------------6-6-6-6-|
F |----------------------------------------------------|
C |----------------------------------------------------|

C |----------------------------------------------------|
G |----------------------------------------------------|
D#|----------------------------------------------------|
A#|7~~~~~~~~~~~~~~~~~~~~~~~~~~~~~~~--------------------|
F |----------------------------------------------------|
C |--------------------------------222-222-222-222-222-|

C |----------------------------------------------------|
G |----------------------------------------------------|
D#|7-7-7-7-7-7-7-7-7-7-7-7-6-6-6-6-6-6-6-6-6-6-4-4-4-4-|
A#|----------------------------------------------------|
F |----------------------------------------------------|
C |----------------------------------------------------|

C |----------------------------------------------------|
G |----------------------------------------------------|
D#|----------------------------------------------------|
A#|6~~~~~~~~~~~~~~~~~~~~~~~~~~~~~~~--------------------|
F |----------------------------------------------------|
C |--------------------------------111-111-111-111-111-|

Break

Guitar 1 & 2

C |----------------------------------------------------|
G |----------------------------------------------------|
D#|----------------------------------------------------|
A#|7----7-8-7--3---------------------------------------|
F |5----5-6-5--3---------------------------------------|
C |5----5-6-5--1---------------------------------------|

Solo

Guitar 1

C |----------------------------------------------------|
G |----------------------------------------------------|
D#|----------------------------------------------------|
A#|----------------------------------------------------|
F |4---4---4---2---5---4----4---4---4---2---5---4------|
C |--2---2---2---2---2---2----2---2---2---2---2---2----|

C |------------------------------------------------------|
G |------------------------------------------------------|
D#|------------------------------------------------------|
A#|------------------------------------------------------|
F |4---4---4---2---4----------4---4---4---2---4----------|
C |--0---0---0---0---0--5--0----0---0---0---0---0--5--0--| x2

C |-----------------------------------------------------|
G |-----------------------------------------------------|
D#|-----------------------------------------------------|
A#|-----------------------------------------------------|
F |----------------------------------------2-2-2-2------|
C |1-1-1-1-1-1-1-1-1-1-1-1-1-1-1-1-4-4-4-4--------------|

C |------------------------------------------------------|
G |------------------------------------------------------|
D#|------------------------------------------------------|
A#|------------------------------------------------------|
F |4-4-4-4-4-4-4-4-4-4-4-4-5-5-5-5-4-4-4-4---------------|
C |----------------------------------------1-1-1-1-------|

C |-----------------------------------------------------|
G |-----------------------------------------------------|
D#|-----------------------------------------------------|
A#|-----------------------------------------------------|
F |-----------------------------------------------------|
C |2-2-2-2-2-2-2-2-2-2-2-2-5-5-5-5-5-5-5-5-5-5-5-5------|

C |-----------------------------------------------------|
G |-----------------------------------------------------|
D#|-----------------------------------------------------|
A#|-----------------------------------------------------|
F |-----------------------------------------------------|
C |4'5-5-5-5-5-5-5-5-5-5-5-5-4-4-4-4-4-4-4-4-2-2-2-2----|

C |-----------------------------------------------------|
G |-----------------------------------------------------|
D#|-----------------------------------------------------|
A#|-----------------------------------------------------|
F |----------------------------------------2-2-2-2------|
C |1-1-1-1-1-1-1-1-1-1-1-1-1-1-1-1-4-4-4-4--------------|

C |-----------------------------------------------------|
G |-----------------------------------------------------|
D#|-----------------------------------------------------|
A#|-----------------------------------------------------|
F |4-4-4-4-4-4-4-4-4-4-4-4-5-5-5-5-4-4-4-4--------------|
C |----------------------------------------1-1-1-1------|

C |-----------------------------------------------------|
G |-----------------------------------------------------|
D#|-----------------------------------------------------|
A#|-----------------------------------------------------|
F |-----------------------------------------------------|
C |2-2-2-2-2-2-2-2-2-2-2-2-5-5-5-5-5-5-5-5-5-5-5-5------|

C |-----------------------------------------------------|
G |-----------------------------------------------------|
D#|-----------------------------------------------------|
A#|-----------------------------------------------------|
F |---------------------------4---2---------------------|
C |4'5-5-5-5-5-5-5-5-5-5-5-5----1---1--1--1-------------|
                                *   *     *

Solo

Guitar 2

C |--9-----------------------9--------------------------|
G |7---10-9-10-9-10-9-7----7---10-9-10-9-10-9-7---------|
D#|-----------------------------------------------------|
A#|-----------------------------------------------------|
F |-----------------------------------------------------|
C |-----------------------------------------------------|

C |-----------------------------------------------------|
G |6-7-6-------6-7-6-------7'9-7------------------------|
D#|-----------------------------------------------------|
A#|-----------------------------------------------------|
F |-----------------------------------------------------|
C |-----------------------------------------------------|

C |--9----------------------------7-9-10-9-7----7-------|
G |7---10-9-10-9-10-9-7-----7-9-10-----------10---10-9--|
D#|-----------------------------------------------------|
A#|-----------------------------------------------------|
F |-----------------------------------------------------|
C |-----------------------------------------------------|

C |--------9-10-12-10-9----9----------------9-10-12-----|
G |9-10-12--------------12---12-10--9-10-12-------------|
D#|-----------------------------------------------------|
A#|-----------------------------------------------------|
F |-----------------------------------------------------|
C |-----------------------------------------------------|

C |---------10-12-14-12-10-9-10-9-------------10-12-14--|
G |10-12-14-----------------------12-10-12-14-----------|
D#|-----------------------------------------------------|
A#|-----------------------------------------------------|
F |-----------------------------------------------------|
C |-----------------------------------------------------|

C |--------------------------10-12-14-------------------|
G |14-12-10-12-10-9-10-12-14----------------------------|
D#|-----------------------------------------------------|
A#|-----------------------------------------------------|
F |-----------------------------------------------------|
C |-----------------------------------------------------|

C |-----9-10-9---------9-10-9---------9-10-9------------|
G |7-10--------10-7-10--------10-7-10--------10---------|
D#|-----------------------------------------------------|
A#|-----------------------------------------------------|
F |-----------------------------------------------------|
C |-----------------------------------------------------|
            |-|
C |12-10-9-10-9-----|
G |------------12-10|
D#|-----------------|
A#|-----------------|
F |-----------------|
C |-----------------|
                                             |--|
C |----7-9-7-------7-9-7-------7-9-7--10-9-7-10-9----7--|
G |6-9-------9-6-9-------9-6-9------9-------------10----|
D#|-----------------------------------------------------|
A#|-----------------------------------------------------|
F |-----------------------------------------------------|
C |-----------------------------------------------------|
                                                        |-|
C |-----9-10-9---------9-10-9---------9-10-9----12-10-9-109-7-9-|
G |7-10--------10-7-10--------10-7-10--------10-----------------|
D#|-------------------------------------------------------------|
A#|-------------------------------------------------------------|
F |-------------------------------------------------------------|
C |-------------------------------------------------------------|

C |9-7---7------------------------------------------------------|
G |---10---10-9-10-9-7-9-7----7---------------------------------|
D#|------------------------10---10-7-10-7-6-7------6------------|
A#|-------------------------------------------10-9---9-7-9-7-6--|
F |-------------------------------------------------------------|
C |-------------------------------------------------------------|

C |--------------------------------------------------------------|
G |--------------------------------------------------------------|
D#|--------------------------------------------------------------|
A#|7-6---6-------------------------------------------------------|
F |----9---9-8-9-8-----------------------------------------------|
C |----------------10-9~~~~~~~~~~~~~~~~~~~~~~~~~~~~~~~~~~~~~~~~~-|

After Solo Riff

Guitar 1

C |--------------------------------------------------------------|
G |--------------------------------------------------------------|
D#|--------------------------------------------------------------|
A#|--------------------------------------------------------------|
F |4-----------4~2---7~6----4-----------333-3-3-2----------------|
C |--1-2-1-111-2~1-1-5~4-1----1-2-1-1-1-111-1-1------------------|

C |--------------------------------------------------------------|
G |--------------------------------------------------------------|
D#|--------------------------------------------------------------|
A#|--------------------------------------------------------------|
F |4-----------4~2---7~6----4------------------------------------|
C |--1-2-1-111-2~1-1-5~4-1----1-2-1-1-1-4-1-4-1-5-1--------------|

C |--------------------------------------------------------------|
G |--------------------------------------------------------------|
D#|--------------------------------------------------------------|
A#|--------------------------------------------------------------|
F |4-----------4~2---7~6----4-----------333-3-3-2----------------|
C |--1-2-1-111-2~1-1-5~4-1----1-2-1-1-1-111-1-1------------------|

C |-----------------------------------------------6--9-----------|
G |------------------------------------------4--7----------------|
D#|-------------------------------------3--6---------------------|
A#|--------------------------------------------------------------|
F |4-----------4~2---7~6----4------------------------------------|
C |--1-2-1-111-2~1-1-5~4-1----1-2-1-1-1--------------------------|

After Solo Riff

Guitar 2

C |--------------------------------------------------------------|
G |--------------------------------------------------------------|
D#|--------------------------------------------------------------|
A#|--------------------------------------------------------------|
F |4-----------4~2---7~6----4-----------333-3-3-2----------------|
C |--1-2-1-111-2~1-1-5~4-1----1-2-1-1-1-111-1-1------------------|

C |--------------------------------------------------------------|
G |--------------------------------------------------------------|
D#|--------------------------------------------------------------|
A#|--------------------------------------------------------------|
F |4-----------4~2---7~6----4-----------2---2---4----------------|
C |--1-5-1-111-2~1-1-5~4-1----1-5-1-1-1---4---4---4--------------|

C |--------------------------------------------------------------|
G |--------------------------------------------------------------|
D#|--------------------------------------------------------------|
A#|--------------------------------------------------------------|
F |4-----------4~2---7~6----4-----------333-3-3------------------|
C |--1-5-1-111-2~1-1-5~4-1----1-5-1-1-1-111-1-1-4----------------|

C |--------------------------------------------------------------|
G |--------------------------------------------------------------|
D#|--------------------------------------------------------------|
A#|-----------------------------------------------3--6-----------|
F |4-----------4~2---7~6----4----------------2--5----------------|
C |--1-5-1-111-2~1-1-5~4-1----1-5-1-1-1-1--4---------------------|

Riff 2

Guitar 1 & 2

C |------------------------------------------------|
G |------------------------------------------------|
D#|------------------------------------------------|
A#|------------------6---------7-7-6-7-------------|
F |--------7---------4---------5-5-4-5-------------|
C |444-444-5-444-444-4-444-444-5-5-4-5-------------|

C |------------------------------------------------|
G |------------------------------------------------|
D#|------------------------------------------------|
A#|------------------6---------7-7-6---------------|
F |--------7---------4---------5-5-4-3-------------|
C |444-444-5-444-444-4-444-444-5-5-4-1-------------| x2

Verse 3

Guitar 1

C |-------------------------------------------------|
G |-------------------------------------------------|
D#|----------------2--------------------------------|
A#|4---4---4---4-------4----6---6---6---6---7---6---|
F |-------------------------------------------------|
C |--2---2---2---2---2---2----0---0---0---0---0---0-|

C |-------------------------------------------------|
G |-------------------------------------------------|
D#|------------6------------------------------------|
A#|7---7---7-------9---7----6---6---6---7---6-------|
F |--0---0---0---0---0---0----------------------7---|
C |---------------------------4---4---4---4---4---4-|

C |------------------------------------------------|
G |------------------------------------------------|
D#|----------------2-------------------------------|
A#|4---4---4---4-------4---6---6---6---6---7---6---|
F |------------------------------------------------|
C |--2---2---2---2---2---2---4---4---4---4---4---4-|

C |-------------------------------------------------|
G |-------------------------------------------------|
D#|----------------1--------------------------------|
A#|3---3---3---3-------3---4---4---4---4---4---4----|
F |-------------------------------------------------|
C |--1---1---1---1---1---1---2---2---2---2---2---2--| x2

Verse 3

Guitar 2

C |-------------------------------------------------|
G |-------------------------------------------------|
D#|-------------------------------------------------|
A#|-------------------------------------------------|
F |----------------4--------------------------------|
C |5-2-5-2-5-2-5-2---2-5-2--4-0-4-0-4-0-4-0-5-0-4-0-|

C |--------------------------------------------------|
G |--------------------------------------------------|
D#|--------------------------------------------------|
A#|--------------------------------------------------|
F |4---4---4---7---5---4---2---2---2---4---2---------|
C |--5---5---5---5---5---5---4---4---4---4---4--4--4-|

C |-------------------------------------------------|
G |-------------------------------------------------|
D#|-------------------------------------------------|
A#|-------------------------------------------------|
F |----------------4--------------------------------|
C |5-2-5-2-5-2-5-2---2-5-2--4-0-4-0-4-0-4-0-5-0-4-0-|

C |------------------------------------------------|
G |------------------------------------------------|
D#|------------------------------------------------|
A#|------------------------------------------------|
F |----------------2-------------------------------|
C |4-1-4-1-4-1-4-1---1-4-1-5-2-5-2-5-2-5-2-5-2-5-2-| x2

Riff 4+Interlude Solo

Guitar 1

C |----------------------------------------------------|
G |----------------------------------------------------|
D#|----------------------------------------------------|
A#|----------------------------------------------------|
F |----------------------------------------------------|
C |7-7-7-7-7-7-7-7-7-7-7-7-5-5-5-5-5-5-5-5-5-5-4-4-4-4-|

C |----------------------------------------------------|
G |----------------------------------------------------|
D#|----------------------------------------------------|
A#|----------------------------------------------------|
F |----------------------------------------------------|
C |1~~~~~~~~~~~~~~~~~~~~~~~~~~~~~~~111-111-111-111-111-|

C |----------------------------------------------------|
G |----------------------------------------------------|
D#|----------------------------------------------------|
A#|----------------------------------------------------|
F |----------------------------------------------------|
C |5-5-5-5-5-5-5-5-5-5-5-5-4-4-4-4-4-4-4-4-4-4-1-1-1-1-|

C |----------------------------------------------------|
G |----------------------------------------------------|
D#|----------------------------------------------------|
A#|----------------------------------------------------|
F |----------------------------------------------------|
C |2~~~~~~~~~~~~~~~~~~~~~~~~~~~~~~~222-222-222-222-222-|

C |----------------------------------------------------|
G |----------------------------------------------------|
D#|----------------------------------------------------|
A#|----------------------------------------------------|
F |----------------------------------------------------|
C |7-7-7-7-7-7-7-7-7-7-7-7-5-5-5-5-5-5-5-5-5-5-4-4-4-4-|

C |----------------------------------------------------|
G |----------------------------------------------------|
D#|----------------------------------------------------|
A#|----------------------------------------------------|
F |----------------------------------------------------|
C |1~~~~~~~~~~~~~~~~~~~~~~~~~~~~~~~111-111-111-111-111-|

Riff 4+Interlude Solo

Guitar 2

C |----------------------------------------------------|
G |----------------------------------------------------|
D#|7-7-7-7-7-7-7-7-7-7-7-7-6-6-6-6-6-6-6-6-6-6-4-4-4-4-|
A#|----------------------------------------------------|
F |----------------------------------------------------|
C |----------------------------------------------------|

C |----------------------------------------------------|
G |----------------------------------------------------|
D#|----------------------------------------------------|
A#|6~~~~~~~~~~~~~~~~~~~~~~~~~~~~~~~--------------------|
F |----------------------------------------------------|
C |--------------------------------111-111-111-111-111-|

C |----------------------------------------------------|
G |----------------------------------------------------|
D#|6-6-6-6-6-6-6-6-6-6-6-6-4-4-4-4-4-4-4-4-4-4---------|
A#|--------------------------------------------6-6-6-6-|
F |----------------------------------------------------|
C |----------------------------------------------------|

C |----------------------------------------------------|
G |----------------------------------------------------|
D#|----------------------------------------------------|
A#|7~~~~~~~~~~~~~~~~~~~~~~~~~~~~~~~--------------------|
F |----------------------------------------------------|
C |--------------------------------222-222-222-222-222-|

C |----------------------------------------------------|
G |----------------------------------------------------|
D#|7-7-7-7-7-7-7-7-7-7-7-7-6-6-6-6-6-6-6-6-6-6-4-4-4-4-|
A#|----------------------------------------------------|
F |----------------------------------------------------|
C |----------------------------------------------------|

C |----------------------------------------------------|
G |----------------------------------------------------|
D#|----------------------------------------------------|
A#|6~~~~~~~~~~~~~~~~~~~~~~~~~~~~~~~--------------------|
F |----------------------------------------------------|
C |--------------------------------111-111-111-111-111-|

Break

Guitar 1 & 2

C |----------------------------------------------------|
G |----------------------------------------------------|
D#|----------------------------------------------------|
A#|7----7-8-7--3---------------------------------------|
F |5----5-6-5--3---------------------------------------|
C |5----5-6-5--1---------------------------------------|

Guitar 1

C |------------------------------------------------|
G |------------------------------------------------|
D#|------------------------------------------------|
A#|------------------------------------------------|
F |4-------------------4---------4-3-7-------------|
C |2-111-111-4-111-111-2-111-111-2-1-5-------------|

C |------------------------------------------------|
G |------------------------------------------------|
D#|------------------------------------------------|
A#|------------------------------------------------|
F |4-------------------4---------------------------|
C |2-111-111-4-111-111-2-111-111-222-111-555-------| x2

Guitar 2

C |------------------------------------------------|
G |------------------------------------------------|
D#|------------------------------------------------|
A#|------------------------------------------------|
F |4-------------------4---------4-3-7-------------|
C |2-111-111-1-111-111-2-111-111-2-1-5-------------|

C |------------------------------------------------|
G |------------------------------------------------|
D#|------------------------------------------------|
A#|------------------------------------------------|
F |4-------------------4---------------------------|
C |2-111-111-1-111-111-2-111-111-222-111-555-------| x2

End

Guitar 1 & 2

C |------------------------------------------------|
G |------------------------------------------------|
D#|------------------------------------------------|
A#|------------------------------------------------|
F |3-----------------------------------------------|
C |1-----------------------------------------------|


Enjoy it! :)

            
            
Suggest correction
Creating personal tab
Creating personal tab
You can edit any tab online and save it as your Personal.

You can edit, replace or remove any tab part or add personal notes – all changes will be seen only by you.

Personal tabs can be accessed anytime from any device, even offline.
Learn more »
comments
print report bad tab
9 comments total. Showing first comments.
+2 reply
gav3427 10 Dec 26, 2007 02:09 PM

it's a whole lot easier to play this in Dropped D flat
an open c is not used in this entire song

0 reply
shadowsfallmang 10 Jan 26, 2008 03:13 PM

true, that's how i figured it out. it doesn't need to be drop C.

0 reply
eNdofthELinE9 308 Mar 26, 2008 04:15 PM

Is the bridge the same as the chorus?

guest
You may want to rate the tab now too:
select rating
Wanna post a correction for this tab? Suggest correction