Oops, an error
Loading. Please wait.
We have an official I Gotta Feeling tab made by UG professional guitarists. Check out the tab »
×

I Gotta Feeling tab

version 1
version 1

Whole song

Interactive

Video

240,651 views 51 this week
3 commentsread comments
1 2 3 4 5
x 26
add to favorites
×
Save as Personal and add changes to this tab that will be seen only by you. Learn more ›
×
You can save this tab as Personal to edit and correct it or add notes. All changes will be seen only by you. Learn more »
launch autoscroll
font size
0
reset
how to read this tab
guitar tuner
backing track
0:00
0:00
edit
Autoscroll
slow
fast
+/-
esc
set tempo
stop
Author
About this tab version
Corrected the format like more lines to improve the quality of the tab. Was this info helpful? Yes No
Artist: Black Eyed Peas
Song: I Got A Feeling
Album: The E.N.D.

Tabber: amnon

Standard Tuning


Guitar 1 or Keyboard
--------------------

[Verse]
e|-----------------|-----------------|-----------------|-----------------|
B|-----------------|-----------------|-----------------|-----------------|
G|-7-7-7-7-5-5-4-4-|-5-5-5-5-5-5-5-5-|-4-4-4-4-4-4-4-4-|-5-5-5-5-5-5-5-5-|
D|-5-5-5-5-5-5-5-5-|-5-5-5-5-5-5-5-5-|-5-5-5-5-5-5-5-5-|-5-5-5-5-5-5-5-5-|
A|-----------------|-3-3-3-3-3-3-3-3-|-x-x-x-x-x-x-x-x-|-3-3-3-3-3-3-3-3-|
E|-----------------|-----------------|-0-0-0-0-0-0-0-0-|-----------------|


Guitar 2 or Bass
----------------

e|----------------- |------------------|------------------|------------------|
B|------------------|------------------|------------------|------------------|
G|------------------|------------------|------------------|------------------|
D|------------------|------------------|------------------|------------------|
A|------------------|-3333333333333333-|------------------|-3333333333333333-|
E|-3333333333333333-|------------------|-0000000000000000-|------------------|


[Chorus 1] starts at 1:30
-------------------------

e|-0---0---0---0---|-1-0-1-0-1-0-1-0-|-3-0-3-0-3-0-3-0-|-3-0-3-0-3-0-3-0-|
B|---3---3---3---3-|-----------------|-----------------|-----------------|
G|-----------------|-----------------|-----------------|-----------------|
D|-----------------|-----------------|-----------------|-----------------|
A|-----------------|-----------------|-----------------|-----------------|
E|-----------------|-----------------|-----------------|-----------------|


[Chorus 2] 3:00 - 4:15
-----------------------

e|-3---3---3--3---3---3--|-3---3---3--3---3---3--|-3---3---3--3---3---3--|-3---3---3--3---3---3--|
B|--3---3---3--3---3---3-|--5---5---5--5---5---5-|--5---5---5--5---5---5-|--5---5---5--5---5---5-|
G|---4---4------4---4----|---5---5------5---5----|---4---4------4---4----|---5---5------5---5----|
D|-----------------------|-----------------------|-----------------------|-----------------------|
A|-----------------------|-----------------------|-----------------------|-----------------------|
E|-----------------------|-----------------------|-----------------------|-----------------------|

************************************

| x  Dead note

************************************

            
            
Suggest correction
Creating personal tab
Creating personal tab
You can edit any tab online and save it as your Personal.

You can edit, replace or remove any tab part or add personal notes – all changes will be seen only by you.

Personal tabs can be accessed anytime from any device, even offline.
Learn more »
comments
print report bad tab
3 comments total. show 1 bad comment
+1 reply
courtkid1012 103 Jul 30, 2009 07:04 AM

It's ok. The 3rd fret powerchord on the a string is definitely wrong though. It doesn't sound right. It sounds better if you play a powerchord on the D string 3rd fret (or 8th fret, A string)

+1 reply
amnon 102 Jun 07, 2010 02:42 PM

I never laughed so hard, troll.

guest
You may want to rate the tab now too:
select rating
Wanna post a correction for this tab? Suggest correction