Oops, an error
Loading. Please wait.
We have Chord Pro version of Where Is The Love.
It's the closest thing you can get to the original song and it has interactive parts. Check out the tab »
×
18,221 views 12 this week
3 commentsread comments
1 2 3 4 5
x 13
add to favorites
×
Save as Personal and add changes to this tab that will be seen only by you. Learn more ›
×
You can save this tab as Personal to edit and correct it or add notes. All changes will be seen only by you. Learn more »
launch autoscroll
font size
0
reset
how to read this tab
guitar tuner
edit
Autoscroll
slow
fast
+/-
esc
set tempo
stop
i was messing around with this n it sounds pretty good so i thought id tab it out.
this is my first tab, so if you've got any probs, go easy on me! my email is aidy04@o2.co.uk
here goes

e :---------------------------------------------------------------|
B :---------------------------------------------------------------|
G :---------------------------------------------------------------|
D :--3---5-3-2--2-3-0--2-3----------3---5-3-2--2-3-0--2-3---------|
A :-----3------3-----------1-1-1-0-----3------3-----------1-1-1-0-|
E :---------------------------------------------------------------|

you just keep playing that all through the song and it's really easy to adjust so if
it's not right anywhere, you can sort it or email me and i'll do my best.
aidy (",)

            
            
Suggest correction
Creating personal tab
Creating personal tab
You can edit any tab online and save it as your Personal.

You can edit, replace or remove any tab part or add personal notes – all changes will be seen only by you.

Personal tabs can be accessed anytime from any device, even offline.
Learn more »
comments
print report bad tab
3 comments total.
0 reply
mizzy4787 21 Jul 20, 2004 08:00 PM

cool

0 reply
mizzy4787 21 Jul 20, 2004 08:00 PM

wow i had first post, kinda sad don't you think

+1 reply
Strat92 10 Sep 24, 2007 01:38 PM

e :---------------------------------------------------------------|
B :---------------------------------------------------------------|
G :------2---------------------3-3------2--------------------3-3--|
D :--3-----3-2--2-3-0--2-3----------3-----3-2--2-3-0--2-3---------|
A :-----3------3-----------1-1--1------3------3-----------1-1-1---|
E :---------------------------------------------------------------|

i may be wrong but it think its more like that...sry if thas in another version but my comp is goin really slow so i don't want to check

guest
Wanna post a correction for this tab? Suggest correction