Oops, an error
Loading. Please wait.
We have Chord Pro version of Where Is The Love.
It's the closest thing you can get to the original song and it has interactive parts. Check out the tab »
×
14,210 views 24 this week
1 commentread comment
1 2 3 4 5
1 last vote to show rating
add to favorites
×
Save as Personal and add changes to this tab that will be seen only by you. Learn more ›
×
You can save this tab as Personal to edit and correct it or add notes. All changes will be seen only by you. Learn more »
launch autoscroll
font size
0
reset
how to read this tab
guitar tuner
edit
Autoscroll
slow
fast
+/-
esc
set tempo
stop
Author
-------------------------------------------------------------------------------
                      `Where Is The Love?` - Black Eyed Peas
-------------------------------------------------------------------------------
Tabbed by: Matt Middleton
Email: middleton.matt@hotmail.co.uk

Tuning: Standard

This is the hook heard predominantly in the intro and first verse:
e|-------------------------------------------------|
B|-------------------------------------------------|
G|--------2----------------------------------------|
D|-3--------3-2------2-3-0----------------8---8----|
A|------3----------3-----------5-8-----------------|
E|---------------------------------6----6---6------|


This is the slide guitar heard in the second half of the first chorus and the first half 
the choruses thereafter:
e|-----------------------|
B|--15\5-----------15\---|
G|-----------------------|
D|-----------------------|
A|-----------------------|
E|-----------------------|

This is the rising notes heard in the second half of the choruses (not used at all in 
first chorus though) and in the outro:
e|---------------------------------------------------------------------------|
B|-13-13-13-13-13-13-13-13-15-15-15-15-15-15-15-15-17-17-17-17-17-17-17-17-18|
G|---------------------------------------------------------------------------|
D|---------------------------------------------------------------------------|
A|---------------------------------------------------------------------------|
E|---------------------------------------------------------------------------|

e|----------------------|
B|-18-18-18-18-18-18-18-|
G|----------------------|
D|----------------------|
A|----------------------|
E|----------------------|


I believe that this is 100% accurate.

            
            
Suggest correction
Creating personal tab
Creating personal tab
You can edit any tab online and save it as your Personal.

You can edit, replace or remove any tab part or add personal notes – all changes will be seen only by you.

Personal tabs can be accessed anytime from any device, even offline.
Learn more »
Give kudos to tab author, rate the tab!
1 2 3 4 5
comments
print report bad tab
1 comment total.
+1 reply
jack140792 10 Oct 06, 2009 06:41 AM

that last bits
-----------------------------------
-----------------------------------
----------------3-----3--------------
---2-3------------------------------
-------1----1------1-----------------
-----------------------------------

thanx 4 what u got right tho sounds awesome echoed

guest
You may want to rate the tab now too:
select rating
Wanna post a correction for this tab? Suggest correction