Oops, an error
Loading. Please wait.

Full Moon intro tab

version 1
version 1

Intro

Whole song

6,906 views 1 this week
2 commentsread comments
1 2 3 4 5
1 last vote to show rating
add to favorites
×
Save as Personal and add changes to this tab that will be seen only by you. Learn more ›
×
You can save this tab as Personal to edit and correct it or add notes. All changes will be seen only by you. Learn more »
launch autoscroll
font size
0
reset
how to read this tab
guitar tuner
edit
Autoscroll
slow
fast
+/-
esc
set tempo
stop
This is the rythm for most of the song.
I'll keep working on doing this part, wich is missing:
' Far far away, no voices sounding, no one around me and
you're still there
Far far away, no choices passing, no time confounds me and you're still there '

I'm going to put down the tab for the first part of the song as an example. the other 
are the same, except for the one I already mentioned above.


1. When the thorn bush turns white, that's when I'll come home.
2. I am going out to see what I can sew.

e--------------------------------------|
B--------------------------------------|
G-----5--7--7--7--7--5--4--------------|
D--7-----------------------7--4--7-----| [repeat twice]
A--------------------------------------|
E--------------------------------------|

1. And I don't know where I'll go,
2 .And I don't know what I'll see,

e-------------------------------------|
B-------------------------------------|
G-----5--7--7--7----------------------|
D--7--------------5--6----------------| [repeat twice]
A-------------------------------------|
E-------------------------------------|

but I'll try not to bring it back home with me.

e--------------------------------------|
B--------------------------------------|
G-----5--7--7--7--7--5--4--------------|
D--7-----------------------7--4--7-----|
A--------------------------------------|
E--------------------------------------|

I hope it sounds ok. It's my first time acctually trying to play a song by ear...

            
            
Suggest correction
Creating personal tab
Creating personal tab
You can edit any tab online and save it as your Personal.

You can edit, replace or remove any tab part or add personal notes – all changes will be seen only by you.

Personal tabs can be accessed anytime from any device, even offline.
Learn more »
Give kudos to tab author, rate the tab!
1 2 3 4 5
comments
print report bad tab
2 comments total.
0 reply
Guitar~Hero17 10 May 27, 2011 09:43 PM

sounds awesome. great tab!

~do u just repeat those tabs for the rest of the song..?

0 reply
hello_alone 10 Dec 20, 2013 08:35 AM

This is how I play it; just a few differences.

1. When the thorn bush turns white, that's when I'll come home.
2. I am going out to see what I can sew.

e--------------------------------------|
B--------------------------------------|
G-----5--7--7--7--7--5--4--------------|
D--7-----------------------7--5--7-----| [repeat twice]
A--------------------------------------|
E--------------------------------------|

1. And I don't know where I'll go,
2 .And I don't know what I'll see,

e-------------------------------------|
B-------------------------------------|
G-----5--7--7--7--9--10---------------|
D--7----------------------------------| [repeat twice]
A-------------------------------------|
E-------------------------------------|

but I'll try not to bring it back home with me.

e--------------------------------------|
B--------------------------------------|
G-----5--7--7--7--7--5--4--------------|
D--7-----------------------7--5--7-----|
A--------------------------------------|
E--------------------------------------|

guest
Wanna post a correction for this tab? Suggest correction