Oops, an error
Loading. Please wait.

Have Love Will Travel tab

version 4
version 4

Whole song

Interactive

357 views 1 this week
no commentswrite comment
1 2 3 4 5
2 more votes to show rating
add to favorites
×
Save as Personal and add changes to this tab that will be seen only by you. Learn more ›
×
You can save this tab as Personal to edit and correct it or add notes. All changes will be seen only by you. Learn more »
launch autoscroll
font size
0
reset
how to read this tab
guitar tuner
edit
Autoscroll
slow
fast
+/-
esc
set tempo
stop
Author
Difficulty
--------------------------------------------------------------------------------------------------------
                   The Black Keys (the sonics)   - Have A Love Will Travel
--------------------------------------------------------------------------------------------------------

Album : Thickfreakness (2003)
Tempo : 117 
E-mail: gwendal.mollo@orange.fr
Tabbed by: newg

This a export of mu guitar pro file, check it for more.
I don't transcript the solo.

        
Intro :
E |----------------------------|
B |----------------------------|
G |--------------------x-------|
D |--------------------x-------|
A |--------------------x--0----|
E |--------------------x-------|


--------------------------------------------------------------------------------
--------------------------------------------------------------------------------
-----------------------------------------5-----------7-----------------------7--
--5--7-----------------------7-----------------------0--------------------------
-----------------------------0--------------------------------------------------
--------------------------------------------------------------------------------


-----------------------|
-----------------------|
---------5-------------|
-----------------------|
-----------------------|
-----------------------|


--------------------------------------------------------------------------------
--------------------------------------------------------------------------------
--5--9-----------------------7-----------5-----------7-----------5--------------
-----------------------------0-----------------------------------------------7--
--------------------------------------------------------------------------------
--------------------------------------------------------------------------------


-----------------------|----------------------------|
-----------------------|----------------------------|
-----------------------|-----------5--7-----7--5----|
---------5-------------|--7~----7-------------------|
-----------------------|--------0-------------------|
-----------------------|----------------------------|


--------------------------------------------------------------------------------
--------------------------------------------------------------------------------
--5--9L----------------------------------------------------------------------9~-
--------------------------------------------------------------------------------
--------------------------------------------------------------------------------
--------------------------------------------------------------------------------


-----------------------||
-----------------------||
---------x-------------||
---------x-------------||
---------x-------------||
---------0-------------||


Main riff :
E |--------------------------|---------------------------|------------------------|----------------------|
B |--------------------------|---------------------------|------------------------|----------------------|
G |--------------------------|---------------------------|------------------------|-------------5-----x--|
D |--------------------------|---------------------------|------------------------|-------------5s----7--|
A |----------3---5----5---3--|-5-7---5---3--5---3--------|--------3---5----5---3--|-5-7-----7------------|
E |---5---5------------------|---------------------5---3-|-5---5------------------|----------------------| x2



  If you need lovin'   
|----------------------------|
|----------------------------|
|----------------------------|
|----------------------------|
|--7--7--7--7--7--7--7--7----|
|--x--x--x--x--x--x--x--x----|

Oh baby I'll travel
--------------------------------------------------------------------------------
--------------------------------------------------------------------------------
--------------------------------------------------------------------------------
--------------------------------------------------------------5--7h----------5--
--5-----------------------------------------------------------------------------
--------------------------------------------------------------------------------


-----------------------|
-----------------------|
-----------------------|
-----------------------|
---------5-------------|
-----------------------|


--------------------------------------------------------------------------------
--------------------------------------------------------------------------------
--------------------------------------------------------------------------------
--------------------------------------------------------------------------------
-----------------------------------------3-----------5-----------------------5--
--3--5-----------------------5--------------------------------------------------


-----------------------|
-----------------------|
-----------------------|
-----------------------|
---------3-------------|
-----------------------|


--------------------------------------------------------------------------------
--------------------------------------------------------------------------------
--------------------------------------------------------------------------------
--------------------------------------------------------------------------------
--5--7-----------------------5-----------3-----------5-----------3--------------
-----------------------------------------------------------------------------5--


-----------------------|----------------------------|
-----------------------|----------------------------|
-----------------------|----------------------------|
-----------------------|----------------------------|
-----------------------|-----------3--5-----5--3----|
---------3-------------|--5-----5-------------------|


--------------------------------------------------------------------------------
--------------------------------------------------------------------------------
-----------------------------------------------------5-----------------------x--
-----------------------------------------------------5s----------------------7--
--5--7-----------------------7--------------------------------------------------
--------------------------------------------------------------------------------

 
Verse 1:                        
|---------------------------|
|---------------------------|
|o------2--------5--5-------|
|o------2--------5--5-------|
|-0M-------0M-3M-------3M---|
-|---------------------------|


---------------------------||----------------------------|
---------------------------||----------------------------|
--------7-----2-----------o||--2--------------------2----|
--------7-----2-----------o||--2--------------------2----|
--5M-----------------------||--0--------------------0----|
-----------------0--3--4---||--------------------3-------|


--------------------------------------------------------------------------------
--------------------------------------------------------------------------------
--------------------------2--5-----------2--------------------------------------
--------------------------------------------------------------------------------
--------------------------------------------------------------------------------
--------------------------------------------------------------------------------


-----------------------||
-----------------------||
-----------------------||
-----------------------||
-----------------------||
---------0-------------||


--------------------------------------------------------------------------------
--------------------------------------------------------------------------------
o-------------------------------------------------------------------------------
o-------------------------------------------------------------------------------
----------------------------------------3-----------5-----------------------5---
-3--5-----------------------5---------------------------------------------------


----------------------|
----------------------|
----------------------|
----------------------|
--------3-------------|
----------------------|


--------------------------------------------------------------------------------
--------------------------------------------------------------------------------
--------------------------------------------------------------------------------
--------------------------------------------------------------------------------
--5--7-----------------------5-----------3-----------5-----------3--------------
-----------------------------------------------------------------------------5--


----------------------||----------------------------|
----------------------||----------------------------|
---------------------o||----------------------------|
---------------------o||----------------------------|
----------------------||-----------3--5-----5--3----|
---------3------------||--5-----5-------------------|


--------------------------------------------------------------------------------
--------------------------------------------------------------------------------
-----------------------------------------------------5-----------------------x--
-----------------------------------------------------5s----------------------7--
--5--7-----------------------7--------------------------------------------------
--------------------------------------------------------------------------------
                  
                         If you need lovin'   
-----------------------|----------------------------------------------------|
-----------------------|----------------------------------------------------|
-----------------------|----------------------------------------------------|
-----------------------|----------------------------------------------------|
-----------------------|--7-----7-----7-----7-----7-----7-----10s------0g---|
-----------------------|--x-----x-----x-----x-----x-----x-------------------|

Oh baby I'll travel
----------------------------|
----------------------------|
----------------------------|
----------------------------|
--5-------------------------|
-----------------------0----|


Solo :

--------------------------------------------------------------------------------
--------------------------------------------------------------------------------
--------------------------------------------------------------------------------
--------------------------------------------------------------------------------
-----------------------------------------3-----------5-----------------------5--
--3--5-----------------------5--------------------------------------------------


-----------------------|
-----------------------|
-----------------------|
-----------------------|
---------3-------------|
-----------------------|


--------------------------------------------------------------------------------
--------------------------------------------------------------------------------
--------------------------------------------------------------------------------
--------------------------------------------------------------------------------
--5--7-----------------------5-----------3-----------5-----------3--------------
-----------------------------------------------------------------------------5--


-----------------------|----------------------------|
-----------------------|----------------------------|
-----------------------|----------------------------|
-----------------------|----------------------------|
-----------------------|-----------3--5-----5--3----|
---------3-------------|--5-----5-------------------|


--------------------------------------------------------------------------------
--------------------------------------------------------------------------------
-----------------------------------------------------5-----------------------x--
-----------------------------------------------------5s----------------------7--
--5--7-----------------------7--------------------------------------------------
--------------------------------------------------------------------------------


-----------------------||---------------------------------------------------|
-----------------------||---------------------------------------------------|
-----------------------||o--------------------------------------------------|
-----------------------||o--------------------------------------------------|
-----------------------||-------------------------x-----x-------------------|
-----------------------||-5-----------5--------x--x--x--x--5--------3-------|


---------------------------------------------------||
---------------------------------------------------||
--------------------------------------------------o||
--------------2-----------------------------------o||
--2-----------2-----------x-----x------------------||
--0-----------0--------x--x--x--x--0--------3------||


If you need lovin'             Oh baby I'll travel
----------------------------|----------------------------|
----------------------------|----------------------------|
----------------------------|----------------------------|
----------------------------|----------------------------|
--7--7--7--7--7--7--7--7----|--5-------------------------|
--x--x--x--x--x--x--x--x----|----------------------------|


--------------------------------------------------------------------------------
--------------------------------------------------------------------------------
--------------------------------------------------------------------------------
--------------------------------------------------------------------------------
-----------------------------------------3-----------5-----------------------5--
--3--5-----------------------5--------------------------------------------------


-----------------------|
-----------------------|
-----------------------|
-----------------------|
---------3-------------|
-----------------------|


--------------------------------------------------------------------------------
--------------------------------------------------------------------------------
--------------------------------------------------------------------------------
--------------------------------------------------------------------------------
--5--7-----------------------5-----------3-----------5-----------3--------------
-----------------------------------------------------------------------------5--


-----------------------|----------------------------|
-----------------------|----------------------------|
-----------------------|----------------------------|
-----------------------|----------------------------|
-----------------------|-----------3--5-----5--3----|
---------3-------------|--5-----5-------------------|


--------------------------------------------------------------------------------
--------------------------------------------------------------------------------
-----------------------------------------------------5-----------------------x--
-----------------------------------------------------5s----------------------7--
--5--7-----------------------7--------------------------------------------------
--------------------------------------------------------------------------------

Verse 2 :
|---------------------------|
|---------------------------|
|o------2--------5--5-------|
|o------2--------5--5-------|
|-0M-------0M-3M-------3M---|
|---------------------------|


---------------------------||----------------------------|
---------------------------||----------------------------|
--------7-----2-----------o||--2-------------------------|
--------7-----2-----------o||--2-------------------------|
--5M-----------------------||--0-----0M----0M----0M------|
-----------------0--3--4---||----------------------------|


----------------------------|
----------------------------|
--------------7b------------|
----------------------------|
--0M----0M------------------|
----------------------------|


--------------------------------------------------------------------------------
--------------------------------------------------------------------------------
--------------------------------------------------------------------------------
--------------------------------------------------------------------------------
-----------------------------------------3-----------5-----------------------5--
--3--5-----------------------5--------------------------------------------------


-----------------------|
-----------------------|
-----------------------|
-----------------------|
---------3-------------|
-----------------------|


--------------------------------------------------------------------------------
--------------------------------------------------------------------------------
--------------------------------------------------------------------------------
--------------------------------------------------------------------------------
--5--7-----------------------5-----------3-----------5-----------3--------------
-----------------------------------------------------------------------------5--


-----------------------|----------------------------|
-----------------------|----------------------------|
-----------------------|----------------------------|
-----------------------|----------------------------|
-----------------------|-----------3--5-----5--3----|
---------3-------------|--5-----5-------------------|


--------------------------------------------------------------------------------
--------------------------------------------------------------------------------
--------------------------------------------------------------------------------
--------------------------------------------------------------------------------
--5--7-----------------------7-----------3-----------5-----------3--------------
-----------------------------------------------------------------------------5--


-----------------------|
-----------------------|
-----------------------|
-----------------------|
-----------------------|
---------3-------------|


--------------------------------------------------------------------------------
--------------------------------------------------------------------------------
--------------------------------------------------------------------------------
--------------------------------------------------------------------------------
-----------------------------------------3-----------5-----------------------5--
--3--5-----------------------5--------------------------------------------------


-----------------------|
-----------------------|
-----------------------|
-----------------------|
---------3-------------|
-----------------------|


--------------------------------------------------------------------------------
--------------------------------------------------------------------------------
--------------------------------------------------------------------------------
--------------------------------------------------------------------------------
--5--7-----------------------5-----------3-----------5-----------3--------------
-----------------------------------------------------------------------------5--


-----------------------|----------------------------|
-----------------------|----------------------------|
-----------------------|----------------------------|
-----------------------|----------------------------|
-----------------------|-----------3--5-----5--3----|
---------3-------------|--5-----5-------------------|


--------------------------------------------------------------------------------
--------------------------------------------------------------------------------
-----------------------------------------------------5-----------------------x--
-----------------------------------------------------5s----------------------7--
--5--7-----------------------7--------------------------------------------------
--------------------------------------------------------------------------------




If ...   Oh baby I'll travel
|-------|--------------------------------------------------------------------------------
|-------|--------------------------------------------------------------------------------
|-------|--------------------------------------------------------------------------------
|-------|--------------------------------------------------------------------------------
|--7~---|--5-----------------------------------7-----------7--10----------7-----------5--
|--x----|--------------------------------------------------------------------------------


-----------------------|----------------------------|
-----------------------|----------------------------|
-----------------------|----------------------------|
-----------------------|----------------------------|
---------3-------------|-----------3--5-----5--3----|
-----------------------|--5-----5-------------------|


--------------------------------------------------------------------------------
--------------------------------------------------------------------------------
--------------------------------------------------------------------------------
--------------------------------------------------------------------------------
--5--7-----------------------5-----------3-----------5-----------3--------------
-----------------------------------------------------------------------------5--


-----------------------|----------------------------|
-----------------------|----------------------------|
-----------------------|----------------------------|
-----------------------|----------------------------|
-----------------------|-----------3--5-----5--3----|
---------3-------------|--5-----5-------------------|


--------------------------------------------------------------------------------
--------------------------------------------------------------------------------
-----------------------------------------------------5-----------------------x--
-----------------------------------------------------5s----------------------7--
--5--7-----------------------7--------------------------------------------------
--------------------------------------------------------------------------------

If you need lovin'             
|----------------------------|
|----------------------------|
|----------------------------|
|----------------------------|
|--7--7--7--7--7--7--7--7----|
|--x--x--x--x--x--x--x--x----|

Oh baby I'll travel
----------------------------|-------|-------|-------|
----------------------------|-------|-------|-------|
--------7b------------------|-------|-------|-------|
----------------------------|--7L---|--7L---|--7----|
--5-------------------------|--7L---|--7L---|--7----|
----------------------------|--5L---|--5L---|--5----|


----------------------------||
----------------------------||
----------------------------||
--7-------------------------||
--7-------------------------||
--5-------------------------||


            
            
Suggest correction
Creating personal tab
Creating personal tab
You can edit any tab online and save it as your Personal.

You can edit, replace or remove any tab part or add personal notes – all changes will be seen only by you.

Personal tabs can be accessed anytime from any device, even offline.
Learn more »
Give kudos to tab author, rate the tab!
1 2 3 4 5
comments
print report bad tab
guest
You may want to rate the tab now too:
select rating
Wanna post a correction for this tab? Suggest correction