Oops, an error
Loading. Please wait.

Keep Me tab

version 3
version 3

Whole song

20,964 views 60 this week
5 commentsread comments
1 2 3 4 5
x 12
add to favorites
×
Save as Personal and add changes to this tab that will be seen only by you. Learn more ›
×
You can save this tab as Personal to edit and correct it or add notes. All changes will be seen only by you. Learn more »
launch autoscroll
font size
0
reset
how to read this tab
guitar tuner
edit
Autoscroll
slow
fast
+/-
esc
set tempo
stop
                                  ~~~~~~~~~~~~~~~~~~~~~~~~~~~~~~~~~~~~~~~
                                                  Keep Me
                                             by: The Black Keys
                                              Rubber Factory
                                  ~~~~~~~~~~~~~~~~~~~~~~~~~~~~~~~~~~~~~~~~
Tabbed by: Connor O.
Tuning: Drop D (DADF#AD) 


Comment or message any ideas or corrections. Please rate my tab. If you've got
problems with the tab, I'd encourage you to contact me with those problems so I
can fix the tab or provide advice for playing. Don't just give me a poor rating
and not give me any feedback. The idea is for us all to work together to create
a perfect finished product. This tab just represents the best I can do. It's 
definitely up for peer review.



Key:
where # represents a fret number

#h# - hammer
#p# - pull
/ \ - slides, up and down respectively.
#b# - bend from normal note up to achieve bended note.
#r# - release bend from bended note to normal note.
pb# - on fret #, bend up a whole step then attack and release
=== - under boxes, represents the use of a guitar slide.
#b  - a slight bend a.k.a. a curl or a lean.
 x  - mute
 *  - time keeper. if you played a steady
      baseline, you'd see the notes are 
      displayed in the tab in the correct 
      chronological order. 
 @  - symbol substitution, for when symbols (like double digits)
      are too large to fit in with the time keepers.



Intro:


  0:00             ! ! = sixteenth notes
                   ! !         @=0h2                   @ = 0h2
d|-2---2\------3/4-0-------0---@-----------0-----------------------|
A|-2---2\--0---------0-3/5---0-----0-------------------------------|
F|-------------------------------x-----1/3-1---0-------------------|
D|-----------------------------------------------------------------|
A|-----------------------------------------------------@-----------|
D|-----------------------------------------------------------------|
   *   *   *   *   *   *   *   *   *   *   *   *   *   *    



d|-------------------------------0---------0---3-------------------|
A|-------------------------------------0h2---0-----------------x---|
F|-----------------------------------------------------------------|
D|-0h2-0h2-0h2-------0------0--------------------------------------|
A|-------------0-3/5---0-------------------------------------------|
D|-----------------------------3b--0-------------------------------|
                                                   *   *   *   *


Verse:

 
  0:11

d|-----------3p0-0-----------3p0-0-----------3p0-0-----------------|
A|-----------3p0-0-------------------------------------------------|
F|-----x---------------x---------------x---------------0-----------|  
D|-----x-------0-------x-------0-------x-------0-0-----0-----------|
A|-----------------------------------------------------------------|
D|-0-------0-------0-------0-------0-------0-------0-------3b------|
   *   *   *   *   *   *   *   *   *   *   *   *   *   *   *   *



d|-----------3p0-0-----------3p0-0-----------3p0-0-----------------|
A|---------------------------3p0-0-----------3p0-0-----------------|
F|-----x---------------x---------------x---------------0-----------|  
D|-----x-------0-------x-------0-------x-------0-------0-----------|
A|-----------------------------------------------------------------|
D|-0-------0-------0-------0-------0-------0-------0-------3b------|
   *   *   *   *   *   *   *   *   *   *   *   *   *   *   *   *

  0:22

d|-----------3p0-0-----------3p0-0-----------3p0-0---0-------------|
A|-----------3p0-0-----------3p0-0-----------3p0-0---0-------------|
F|-----x---------------x---------------x---------------0-----------|  
D|-----x-------0-------x-------0-------x-------0-------0-----------|
A|-----------------------------------------------------------------|
D|-0-------0-------0-------0-------0-------0-------0-------3b------|
   *   *   *   *   *   *   *   *   *   *   *   *   *   *   *   *

  

d|-----------3p0-0-----------3p0-0-----------3p0-0-----------------|
A|-----------3p0-0-----------3p0-0-----------3p0-0-----------------|
F|-----x---------------x---------------x---------------0-----------| 
D|-----x-------0-------x-------0-------x-------0-------0-----------|
A|-----------------------------------------------------------------|
D|-0-------0-------0-------0-------0-------0-------0-------3b------|
   *   *   *   *   *   *   *   *   *   *   *   *   *   *   *   *


Verse  1:


  0:33  
       Keep  me  clean                 Keep  me    warm
d|-----------3p0-0-----------3p0-0-----------3p0-0-----------3p0-0-|
A|-----------3p0-0-----------3p0-0-----------3p0-0-----------3p0-0-|
F|-----x---------------x---------------x---------------x-----------|  
D|-----x-------0-------x-------0-------x-------0-------x-----------|
A|-----------------------------------------------------------------|
D|-0-------0-------0-------0-------0-------0-------0-------0-------|
   *   *   *   *   *   *   *   *   *   *   *   *   *   *   *   *

            
           K my    soulaway  fromharm 
d|-----------3p0-0-----------3p0-0-----------3p0-0-----------------|
A|-----------3p0-0-----------3p0-0-----------3p0-0-----------------|
F|-----x---------------x---------------x---------------0-----------| 
D|-----x-------0-------x-------0-------x-------0-------0-----------|
A|-----------------------------------------------------------------|
D|-0-------0-------0-------0-------0-------0-------0-------3b------|
   *   *   *   *   *   *   *   *   *   *   *   *   *   *   *   *

  0:44  
       Keep  the night                     K   t day
d|-----------3p0-0-----------3p0-0-----------3p0-0-----------3p0-0-|
A|-----------3p0-0-----------3p0-0-----------3p0-0-----------3p0-0-|
F|-----x---------------x---------------x---------------x-----------|  
D|-----x-------0-------x-------0-------x-------0-------x-----------|
A|-----------------------------------------------------------------|
D|-0-------0-------0-------0-------0-------0-------0-------0-------|
   *   *   *   *   *   *   *   *   *   *   *   *   *   *   *   *
 
            
           K   the in  betw  aw  ay 
d|-----------3p0-0-----------3p0-0-----------3p0-0-----------------|
A|-----------3p0-0-----------3p0-0-----------3p0-0-----------------|
F|-----x---------------x---------------x---------------0-----------| 
D|-----x-------0-------x-------0-------x-------0-------0-----------|
A|-----------------------------------------------------------------|
D|-0-------0-------0-------0-------0-------0-------0-------3b------|
   *   *   *   *   *   *   *   *   *   *   *   *   *   *   *   *



Solo 1:

  
  0:55

d|-----------------3b----------0-----------------------------------|
A|-3/5-5---5p3p0-----------------------3/5-3/5-0---3b------0-------|
F|-------------------------------------------------------------3/1-|
D|-----------------------------------------------------------------|
A|-----------------------------------------------------------------|
D|-----------------------------------------------------------------|
   *   *   *   *   *   *   *   *   *   *   *   *   *   *   *   *


Bridge:


  1:01

d|---------------3p0-0---0-------------------3p0-0-----------------| 
A|---------------0---0---0-------------------3p0-0-----------------| 
F|p0-------x-------------------0-------x---------------0-----------| 
D|---------x-------0-----------0-------x-------0-------0-----------|
A|-------------------------------------------------0---------------|
D|-----0-------0-------0---3b------0-------0-------0-------3b------|
   *   *   *   *   *   *   *   *   *   *   *   *   *   *   *   *


Verse 2:


  
       Hold  that  second              H   t ti--i-ime
d|-----------3p0-0-----------3p0-0---------3p0---------------3p0-0-|
A|-----------3p0-0-----------3p0-0---------------------------3p0-0-|
F|-----x---------------x-------------------------------x-----------|  
D|-----x-------0-------x-------0---------------0-------x-----------|
A|-----------------------------------------------------------------|
D|-0-------0-------0-------0-------0---0---0-------0-------0-------|
   *   *   *   *   *   *   *   *   *   *   *   *   *   *   *   *

           
           Holdthatpic   in  yourmind      
d|-----------3p0-0-----------3p0-0-----x-----3p0-0-----------------|
A|-----------3p0-0-----------3p0-0-----x-----3p0-0-----------------|
F|-----x---------------x---------------x---------------0-----------|  
D|-----x-------0-------x-------0-------x-------0-------0-----------|
A|-----------------------------------------------------------------|
D|-0-------0-------0-------0-------0-------0-------0-------3b------|
   *   *   *   *   *   *   *   *   *   *   *   *   *   *   *   *

  
       Hold  the smoke                     Holdt fire  
d|-----------3p0-0-----0~h~3-3p0-0-----------3p0-0-----------3p0-0-|
A|-----------0---------0~h~3-3p0-0-----------3p0-0-----------3p0-0-|
F|-----x-------------------------------x---------------x-----------|  
D|-----x-------0-----------------------x-------0-------x-----------|
A|-----------------------------------------------------------------|
D|-0-------0-------0---0---0-------0-------0-------0-------0-------|
   *   *   *   *   *   *   *   *   *   *   *   *   *   *   *   *
 
           
           H   a t   now you de  sire
d|-----------3p0-0-----------3p0-0-----------3p0-0-----------------|
A|-----------3p0-0-----------3p0-0-----------3p0-0-----------------|
F|-----x---------------x---------------x---------------0-----------|  
D|-----x-------0-------x-------0-------x-------0-------0-----------|
A|-----------------------------------------------------------------|
D|-0-------0-------0-------0-------0-------0-------0-------3b--0---|
   *   *   *   *   *   *   *   *   *   *   *   *   *   *   *   *


Solo 2:


  

d|-----------------3b------0---------------------------------------|
A|-3/5-5---5p3p0---------------3/5-5---3/5-5---0---3b------0-------|
F|-------------------------------------------------------------3/1-|
D|-----------------------------------------------------------------|
A|-----------------------------------------------------------------|
D|-----------------------------------------------------------------|
   *   *   *   *   *   *   *   *   *   *   *   *   *   *   *   *



d|---------0-----------0---0h2-0h2-0h2-0---2-----------------------|
A|---------------------0---0---0h2-0---0---2-----------------------|
F|-0---1/3-----3---3\1---------------------2-----------------------|
D|-----------------------------------------2-----------------------|
A|-----------------------------------------2-----------------------|
D|-----------------------------------------------------------------|
   *   *   *   *   *   *   *   *   *   *   *   *   *   *   *   *
                                           =

Bridge:


  1:01

d|-----------3p0-0-----------3p0-0-----------3p0-0-----------------|
A|-----------------------------------------------------------------|
F|-----x---------------x---------------x-------------0-------------|  
D|-----x-------0-------x-------0-------x-------0-------0-----------|
A|-----------------------------------------------------------------|
D|-0-------0-------0-------0-------0-------0-------0-------3b------|
   *   *   *   *   *   *   *   *   *   *   *   *   *   *   *   *



d|-----0~h~3-3p0-0-----------3p0-0-----------3p0-0-----------------|
A|-----------------------------------------------------------------|
F|---------------------x---------------x---------------0-----------|  
D|-----0---------------x-------0-------x-------0-------0-----------|
A|-----------------------------------------------------------------|
D|-0-------0-------0-------0-------0-------0-------0-------3b------|
   *   *   *   *   *   *   *   *   *   *   *   *   *   *   *   *


Verse 3:


  1:49
           S me  trust                     S me  love
d|-----------3p0-0-----------3p0-0-----------3p0-0-----------------|
A|-----------------------------------------------------------------|
F|-----x---------------x---------------x---------------------------|  
D|-----x-------0-------x-------0-------x-------0-0-----x-----0-----|
A|-----------------------------------------------------------------|
D|-0-------0-------0-------0-------0-------0-------0-------3b--0---|
   *   *   *   *   *   *   *   *   *   *   *   *   *   *   *   *


               S m h   v up  a   bove
d|-----------------------------------------------------------------|
A|-----------------------------------------------------------------|
F|-----------------------------------------------------------------|  
D|-----------------------------------------------------------------|
A|-----------------------------------------------------------------|
D|-0-------------------------------------------------------3b------|
   *   *   *   *   *   *   *   *   *   *   *   *   *   *   *   *
 

       Show  ur  soul                      S ur  mind
d|-----------3p0-0-----------3p0-0-----------3p0-0-----------3p0-0-|
A|-----------3p0-0-----------3p0-0-----------3p0-0-----------3p0-0-|
F|-----x---------------x---------------x---------------x-----------|  
D|-----x-------0-------x-------0-------x-------0-------x-----------|
A|-----------------------------------------------------------------|
D|-0-------0-------0-------0-------0-------0-------0-------0-------|
   *   *   *   *   *   *   *   *   *   *   *   *   *   *   *   *
 
           
           S it  to  me  all the time
d|-----------3p0-0-----------3p0-0-----------3p0-0-----------------|
A|-----------3p0-0-----------3p0-0-----------3p0-0-----------------|
F|-----x---------------x---------------x---------------0-----------|  
D|-----x-------0-------x-------0-------x-------0-------0-----------|
A|-----------------------------------------------------------------|
D|-0-------0-------0-------0-------0-------0-------0-------3b--0---|
   *   *   *   *   *   *   *   *   *   *   *   *   *   *   *   *


Solo 3:

  
  2:10

d|-----------------3b----------0-----------------------------------|
A|-3/5-5---5p3p0-----------------------3/5-3/5-0---3~p~0-----------|
F|---------------------------------------------------------3/1p0---|
D|-----------------------------------------------------------------|
A|-----------------------------------------------------------------|
D|-----------------------------------------------------------------|
   *   *   *   *   *   *   *   *   *   *   *   *   *   *   *   *


                     @=2\0
d|-----------------2-------------------5---5---5-------------------|
A|-------------0/2---@-------------2/5---5---5---5-----------------|
F|-2-----------0/2-----2---2-------2/5-------------0/2-2---2\------|
D|-2-----------0/2-----2---2-------2/5-------------0/2-2---2\------|
A|-2---------------------------------------------------------------|
D|-----------------------------------------------------------------|
   *   *   *   *   *   *   *   *   *   *   *   *   *   *   *   *
   =           === = = =   =       === = = = = = = === =   ==

Outro:




d|-----------3p0-0-----------3p0-0-----------3p0-0-----------------|
A|-------------------------------------------0---------------------|
F|-----x---------------x---------------x---------------0-----------|  
D|-----x-------0-------x-------0-------x-------0-------0-----------|
A|-----------------------------------------------------------------|
D|-0-------0-------0-------0-------0-------0-------0-------3b------|
   *   *   *   *   *   *   *   *   *   *   *   *   *   *   *   *



d|-----------3p0-0-----------3p0-0-----------3p0-0-----------------|
A|---------------------------3p0-0-----------3p0-0-----------------|
F|-----x---------------x---------------x---------------0-----------|  
D|-----x-------0-------x-------0-------x-------0-------0-----------|
A|-----------------------------------------------------------------|
D|-0-------0-------0-------0-------0-------0-------0-------3b------|
   *   *   *   *   *   *   *   *   *   *   *   *   *   *   *   *

  0:22

d|-----------3p0-0-----------3p0-0-----------3p0-0-----------------|
A|-----------3p0-0-----------3p0-0-----------3p0-0-----------------|
F|-----x---------------x-------0-------x-------------x-------------|  
D|-----x-------0-------x---------------x-------0-----x-------------|
A|-----------------------------------------------------------------|
D|-0-------0-------0-------0-------0-------0-------0---0---3b------|
   *   *   *   *   *   *   *   *   *   *   *   *   *   *   *   *

  0:28

d|-----------3p0-0-----------3p0-0-----------3p0-x-----------------|
A|-----------3p0-0-----------3p0-0-----------3p0-x-----------------|
F|-----x---------------x---------------x---------------------------| 
D|-----x-------0-------x-------0-------x-------0---0-------------0-|
A|---------------------------------------------------------------0-|
D|-0-------0-------0-------0-------0-------0---------------3b------|
   *   *   *   *   *   *   *   *   *   *   *   *   *   *   *   *



d|-----------------------------------------------------------------|
A|-----------------------------------------------------------------|
F|-0/2-------------------------------------------------------------|  
D|-0/2-------------------------------------------------------------|
A|-0/2-------------------------------------------------------------|
D|---------------------------------------------------------3-5b7---|
   *   *   *   *   *   *   *   *   *   *   *   *   *   *   *   *



d|-----------------------------------------------------------------|
A|-----------------------------------------------------------------|
F|-----------------------------------------------------------------| 
D|-----------------------------------------------------------------|
A|-0---------------------------------------------------------------| 
D|-0---------------------------------------------------------------| 
   *   *   *   *   *   *   *   *   *   *   *   *   *   *   *   *

            
            
Suggest correction
Creating personal tab
Creating personal tab
You can edit any tab online and save it as your Personal.

You can edit, replace or remove any tab part or add personal notes – all changes will be seen only by you.

Personal tabs can be accessed anytime from any device, even offline.
Learn more »
comments
print report bad tab
5 comments total. Showing first comments.
0 reply
glockbot 10 May 08, 2016 06:00 PM

Looking for advice on playing the tab. Not sure where the muting takes place.

0 reply
coman91 1,552 May 10, 2016 06:11 PM

I'm here to help and I'll do my best. I'll make a youtube video tonight and personal message you the link. To be quite honest this tab that I wrote isn't exactly easy to read. I may just edit it tonight or tomorrow.

0 reply
bcruz0330 10 Jun 06, 2016 11:00 AM, edited at 03:01 pm

I would be very thankful if i can have that link too brother, this is an amazing tab.

guest
You may want to rate the tab now too:
select rating
Wanna post a correction for this tab? Suggest correction