Oops, an error
Loading. Please wait.

Keep Me tab

version 2
version 2

Whole song

46,770 views 24 this week
10 commentsread comments
1 2 3 4 5
x 14
add to favorites
×
Save as Personal and add changes to this tab that will be seen only by you. Learn more ›
×
You can save this tab as Personal to edit and correct it or add notes. All changes will be seen only by you. Learn more »
launch autoscroll
font size
0
reset
how to read this tab
guitar tuner
edit
Autoscroll
slow
fast
+/-
esc
set tempo
stop
Intro
--/12-12-|---------0---|--------------------|------------------|---------------|-0-----3---|
--/12-12-|-0-8-5-0-3h5-|-3p0-7-5-0--0---0-0-|------------------|---------------|-0-3p0-0---|
---------|-------------|------------2h4-2-1-|------------------|---------------|-----------|
---------|-------------|--------------------|-4--2h4-2h4-2h4---|-2---------2---|-----------|
---------|-------------|--------------------|----------------2-|---------------|-----------|
---------|-------------|--------------------|------------------|---3p0-2/3---0-|-----------|

Main Riff
-------3p0-0-----3p0-0-----3p0-0---------|
-------0---0-----0---0-----0---0---------|
----1---------1----------1--------1------|
----2---------2----------2--------2------|
-----------------------------------------|
--0----------0---------0---------0----3b-|

1st break
-------------3-----------------------|
-3/5-5-5p3-----5—3h5-3h5---3---------|
-----------4-------------4---4/2sb-1-|
-------------------------------------|
-------------------------------------|
-------------------------------------|

  2nd break
-------------3---------------------------------------------3----3----3------|
-3/5-5-5p3-----5—3h5-3h5---3--------------3----------------3h5--3h5--3--3---|
-----------4-------------4---4/2sb-1—-2/4----4/2sb-1--2/4---------------4---|
----------------------------------------------------------------------------|
----------------------------------------------------------------------------|
----------------------------------------------------------------------------|

3rd break
-------------3------------------------------------12------------12--12-15p12---12-------|
-3/5-5-5p3-----5—3h5-3h5---3-----------3sb----------12----12--12--12---------12---12sb--|
-----------4-------------4---4/2sb-1—--4sb—--4/12-----12--12----------------------12sb--|
----------------------------------------------------------------------------------------|
----------------------------------------------------------------------------------------|
----------------------------------------------------------------------------------------|

            
            
Suggest correction
Creating personal tab
Creating personal tab
You can edit any tab online and save it as your Personal.

You can edit, replace or remove any tab part or add personal notes – all changes will be seen only by you.

Personal tabs can be accessed anytime from any device, even offline.
Learn more »
comments
print report bad tab
10 comments total. Showing first comments.
0 reply
ajp0 10 Nov 20, 2009 07:53 AM

tuned half a step down

+2 reply
alinktothepast9 67 Aug 30, 2010 07:31 PM

I think the first two notes in the riff are palm muted

-----------3p0-0---|
-----------0---0---|
-------1-----------|
-------2-----------|
-------------------|
--0----------------|

PM PM

0 reply
danauerbach 10 Nov 08, 2010 05:32 AM

its in open D

guest
Wanna post a correction for this tab? Suggest correction