Oops, an error
Loading. Please wait.
We have an official Lonely Boy tab made by UG professional guitarists. Check out the tab »
×
96,823 views 138 this week
3 commentsread comments
1 2 3 4 5
x 19
add to favorites
×
Save as Personal and add changes to this tab that will be seen only by you. Learn more ›
×
You can save this tab as Personal to edit and correct it or add notes. All changes will be seen only by you. Learn more »
launch autoscroll
font size
0
reset
guitar tuner
backing track
0:00
0:00
edit
Autoscroll
slow
fast
+/-
esc
set tempo
stop
Author
Difficulty
-------------------------------------------------------------------------------
                           LONELY BOY - THE BLACK KEYS
-------------------------------------------------------------------------------

Tabbed By : CueTheSun
e-mail: jgillespie99@msn.com

Tuning: Standard


[Intro]

(0:16-0:29)
G|-----------------------------------------------------------------------------|
D|---------------7--7--7--7-------------7--7--7--------7-----------------------|
A|---7--7--7--7-------------7--7--7--7-----------7h10--------------------------|
E|-----------------------------------------------------------------------------|


[Verse/Chorus]     

(0:39-1:26)  (1:38-2:24)
G|-----------------------------------------------------------------------------|
D|--------------7--------7-------7---------------------------------------------|
A|--7-7-7-7h10----10-10----7h10---(repeat x7)----------------------------------|
E|-----------------------------------------------------------------------------|


[Bridge] 

(2:37-2:47)
G|-----------------------------------------------------------------------------|
D|---------------7--7--7--7-------------7--7--7--------7-----------------------|
A|---7--7--7--7-------------7--7--7--7-----------7h10--------------------------|
E|-----------------------------------------------------------------------------|


[Ending Chorus]

(2:37-3:13)
G|-----------------------------------------------------------------------------|
D|--------------7--------7-------7---------------------------------------------|
A|--7-7-7-7h10----10-10----7h10---(repeat x3)----------------------------------|
E|-----------------------------------------------------------------------------|

************************************

| h  Hammer-on

************************************

            
            
Suggest correction
Creating personal tab
Creating personal tab
You can edit any tab online and save it as your Personal.

You can edit, replace or remove any tab part or add personal notes – all changes will be seen only by you.

Personal tabs can be accessed anytime from any device, even offline.
Learn more »
comments
print report bad tab
3 comments total.
0 reply
redleader77 10 Sep 27, 2014 07:46 AM

Lack of accuracy. Clearly wrong. If you listen to the song it's painfully obvious it's wrong.. Now I'm just filling this out because it needs 20 words for some reason.

0 reply
dnimble 10 Mar 11, 2015 02:11 PM

Lack of accuracy. Tab incomplete. Clearly wrong. Indeed, tabs like this should be deleted. All over the place, clearly wrong. They're onto something by playing in E but still, brutal.

0 reply
ajwade654 10 Apr 24, 2017 06:01 PM

clearly wrong

guest
You may want to rate the tab now too:
select rating
Wanna post a correction for this tab? Suggest correction