Oops, an error
Loading. Please wait.

Nobody But You tab

version 2
version 2

Whole song

5,206 views 24 this week
4 commentsread comments
1 2 3 4 5
x 11
add to favorites
×
Save as Personal and add changes to this tab that will be seen only by you. Learn more ›
×
You can save this tab as Personal to edit and correct it or add notes. All changes will be seen only by you. Learn more »
launch autoscroll
font size
0
reset
how to read this tab
guitar tuner
edit
Autoscroll
slow
fast
+/-
esc
set tempo
stop
Author
Difficulty
                                  ~~~~~~~~~~~~~~~~~~~~~~~~~~~~~~~~~~~~~~~~
                                               Nobody But You
                                             by: The Black Keys
                                  Chulahoma: The Songs of Junior Kimbrough
                                  ~~~~~~~~~~~~~~~~~~~~~~~~~~~~~~~~~~~~~~~~
Tabbed by: Connor O.
Tuning: Standard



Like with all other Chulahoma songs, it's hard to know if this is exactly
how it's played as there is no live footage (that I could find) of it
being played. Also like other Chulahoma (Kimbrough in general, really)
songs, it's just following a certain pattern on a pentatonic scale. 

That being said, I'm confident in this tab's accuracy because it's
easy for me to play it this way and it sounds spot on with the 
recorded version.


Comment or message any ideas or corrections. Please rate my tab. If you've got
problems with the tab, I'd encourage you to contact me with those problems so I
can fix the tab or provide advice for playing. Don't just give me a poor rating
and not give me any feedback. The idea is for us all to work together to create
a perfect finished product. This tab just represents the best I can do. It's 
definitely up for peer review.



Key:
where # represents a fret number

#h# - hammer
#p# - pull
/ \ - slides, up and down respectively.
#b# - bend from normal note up to achieve bended note.
#r# - release bend from bended note to normal note.
 #b - curl a.k.a. lean, less than half step bend.
 ~  - hold note
 *  - time keeper


Intro:


  0:00

e|---------------------------------|
B|-------------1h3-----------------|
G|-----0---2---0-------0---0h2~~p0-|
D|-2-------------------------------|  X2
A|-0---0---0---0---0---0---0---0---|
E|---------------------------------|



e|---------------------------------|
B|-------------1h3-----------------|
G|-----0---2---0-------0---0h2-----|
D|-2-------------------------------|  
A|-0---0---0---0---0---0---0---0---|
E|---------------------------------|


  0:10

e|-3---------------------------------------------------------------|
B|-3---3/5-1---1h3-----1-----------------------1~h~3---------------|
G|---------0---0-----------2p0---------0---2---0-------0---0h2~~p0-|
D|---------------------------------2-------------------------------|
A|-0---0---0---0---0---0---0---0---0---0---0---0---0---0---0---0---|
E|-----------------------------------------------------------------|


  0:16

e|-----------------------------------------------------------------|
B|-------------1---3/5-5\3-1-------------------1~h~3---------------|
G|-----0---2---0-----------0-----------0---2-----------0---0h2-----|
D|-2-------------------------------2-------------------------------| 
A|-0---0---0---0---0---0---0---0---0---0---0---0---0---0---0---0---|
E|-----------------------------------------------------------------|


  0:22

e|-3-------------------------------|
B|-----3/5-1---1h3-----1-----------|
G|-------------------------2p0-----|
D|---------------------------------|
A|-0---0---0---0---0---0---0---0---|
E|---------------------------------|



Verse 1:


  0:25
  Nobody babe
e|-----------------------------------------------------------------|
B|-------------1---3---------------------------1~h~3---------------|
G|-----0---2-----------0---2-----------0---2-----------0---0h2-----|
D|-2-------------------------------2-------------------------------|  
A|-0---0---0---0---0---0---0---0---0---0---0---0---0---0---0---0---|
E|-----------------------------------------------------------------|


  0:30
  Nobody but you darlin'
e|-3---------------------------------------------------------------|
B|-----3/5-1---1h3~~~~p1-----------------------1~h~3---------------|
G|-------------------------2-----------0---2-----------0---0h2~~p0-|
D|---------------------------------2-------------------------------|
A|-0---0---0---0---0---0---0---0---0---0---0---0---0---0---0---0---|
E|-----------------------------------------------------------------|


  0:36
  Nobody babe
e|-----------------------------------------------------------------|
B|-------------1---3---------------------------1~h~3---------------|
G|-----0---2-----------0---2-----------0---2---0-------0---0h2-----|
D|-2-------------------------------2-------------------------------|  
A|-0---0---0---0---0---0---0---0---0---0---0---0---0---0---0---0---|
E|-----------------------------------------------------------------|


  0:42
  Nobody but you darlin
e|-0---------------------------------------------------------------|
B|-3/5-3---1---1h3~~~~p1-----------------------1~h~3---------------|
G|-------------------------2-----------0---2---0-------0---0h2-----|
D|---------------------------------2-------------------------------|
A|-0---0---0---0---0---0---0---0---0---0---0---0---0---0---0---0---|
E|-----------------------------------------------------------------|


  0:48
  On my mind
e|-----------------------------------------------------------------|
B|-1h3-----1---1-------------------------------1~h~3---------------|
G|-0-------------2---------------------0---2---0-------0---0h2~~p0-|
D|---------------------------------2-------------------------------|
A|-0---0---0---0---0---0---0---0---0---0---0---0---0---0---0---0---|
E|-----------------------------------------------------------------|



Bridge


  0:53

e|---------------------------------|
B|-------------3/5-5\3-1-----------|
G|-----0---2---------------2p0-----|
D|-2-------------------------------| 
A|-0---0---0---0---0---0---0---0---|
E|---------------------------------|



Verse 2:


  0:56
  Baby
e|-----------------------------------------------------------------|
B|-------------1---3---------------------------1~h~3---------------|
G|-----0---2-----------0---2-----------0---2-----------0---0h2-----|
D|-2-------------------------------2-------------------------------|  
A|-0---0---0---0---0---0---0---0---0---0---0---0---0---0---0---0---|
E|-----------------------------------------------------------------|


  1:01
  I need you darlin'
e|-----------------------------------------------------------------|
B|-3/5-3---1---1h3~~p1-------------------------1~h~3---------------|
G|---------------------2---------------0---2---0-------0---0h2-----|
D|---------------------------------2-------------------------------| 
A|-0---0---0---0---0---0---0---0---0---0---0---0---0---0---0---0---|
E|-----------------------------------------------------------------|


  1:07
  Baby
e|-3---------------------------------------------------------------|
B|-----3/5\3---1-------------------------------1~h~3---------------|
G|-------------------------------------0---2---0-------0---0h2-----|
D|---------------------------------2-------------------------------|  
A|-0---0---0---0---0---0---0---0---0---0---0---0---0---0---0---0---|
E|-----------------------------------------------------------------|


  1:13
  I need you darlin'
e|-----------------------------------------------------------------|
B|-3/5-3---1---3/5\3p1-------------------------1~h~3---------------|
G|---------------------2---------------0---2---0-------0---0h2-----|
D|---------------------------------2-------------------------------|
A|-0---0---0---0---0---0---0---0---0---0---0---0---0---0---0---0---|
E|-----------------------------------------------------------------|


  1:18
  Nobody baby
e|-----------------------------------------------------------------|
B|-3/5-3p1-3/5\3p1-----------------------------1---3---------------|
G|-----------------2-------------------0---2-----------0---2-------|
D|---------------------------------2-------------------------------| 
A|-0---0---0---0---0---0---0---0---0---0---0---0---0---0---0---0---|
E|-----------------------------------------------------------------|


  1:24
  Nobody but you darlin'
e|-3---------------------------------------------------------------|
B|-----3/5-1---1h3~~p1-------------------------1~h~3---------------|
G|---------------------2---------------0---2---0-------0---0h2-----|
D|---------------------------------2-------------------------------|
A|-0---0---0---0---0---0---0---0---0---0---0---0---0---0---0---0---|
E|-----------------------------------------------------------------|


  1:30
  On my mind
e|-----------------------------------------------------------------|
B|-1h3-----1---1-------------------------------1~h~3---------------|
G|-0---------------2-------------------0---2---0-------0---0h2~~p0-|
D|---------------------------------2-------------------------------| 
A|-0---0---0---0---0---0---0---0---0---0---0---0---0---0---0---0---|
E|-----------------------------------------------------------------|



Solo 1:


  1:35

e|-----------------------------3h5-----------------5---------------|
B|-------------3/5-3---1---3/5-------------------------5\3---------|
G|-----0---2-------------------------------------------------------|
D|-2---------------------------------------------------------------|  
A|-0---0---0---0---0---0---0---0---0---0---0---0---0---0---0---0---|
E|-----------------------------------------------------------------|


  1:40

e|-----3-------3h5-3-----------------------------------------------|
B|-3/5-----5-----------3---1-----------------------1---3-----------|
G|-----------------------------2p0---------0---2-----------0---0h2-|
D|-------------------------------------2---------------------------|
A|-0---0---0---0---0---0---0---0---0---0---0---0---0---0---0---0---|
E|-----------------------------------------------------------------|


  1:46
                                                           & = 10
e|-----------------------------3---3h5---------8b------------------|
B|-----------------1h3-1---3/5-----------------------------&-8-----|
G|-----2p0-----0h2---------------------------------------------9---|
D|---------2-------------------------------------------------------|
A|-0---0---0---0---0---0---0---0---0---0---0---0---0---0---0---0---|
E|-----------------------------------------------------------------|
                                       

  1:52   &=10
   &=8h10  &=8h10  &=10\8
e|-----8---&---8---------------------------------------------------|
B|-&-----&---------&-----8-----------------1---1~h~3---------------|
G|---------------------9---9\------2---0h2-------------0---0h2-----|
D|-----------------------------------------------------------------|
A|-0---0---0---0---0---0---0---0---0---0---0---0---0---0---0---0---|
E|-----------------------------------------------------------------|
         

  1:57

e|-3-------------------------------|
B|-----3/5-1---1h3-----1-----------|
G|-------------------------2p0-----|
D|---------------------------------|
A|-0---0---0---0---0---0---0---0---|
E|---------------------------------|



Verse 3:


  2:00
  Baby
e|-----------------------------------------------------------------|
B|-------------1---3---------------------------1~h~3---------------|
G|-----0---2-----------0---2-----------0---2-----------0---0h2-----|
D|-2-------------------------------2-------------------------------|  
A|-0---0---0---0---0---0---0---0---0---0---0---0---0---0---0---0---|
E|-----------------------------------------------------------------|


  2:06
  I'm on my knees
e|-----------------------------------------------------------------|
B|-------------1---3---------------------------1~h~3---------------|
G|-----0---2-----------0---2-----------0---2-----------0---0h2-----|
D|-2-------------------------------2-------------------------------|  
A|-0---0---0---0---0---0---0---0---0---0---0---0---0---0---0---0---|
E|-----------------------------------------------------------------|


  2:12
  I'm beggin you babe
e|-----------------------------------------------------------------|
B|-3/5-3---1---3/5\3p1-------------------------1~h~3---------------|
G|---------------------2---------------0---2-----------0---0h2-----|
D|---------------------------------2-------------------------------|
A|-0---0---0---0---0---0---0---0---0---0---0---0---0---0---0---0---|
E|-----------------------------------------------------------------|


  2:17
  Don't leave me darlin
e|-----------------------------------------------------------------|
B|-3/5-3---1---3/5\3p1-------------------------1~h~3---------------|
G|---------------------2---------------0---2-----------0---0h2-----|
D|---------------------------------2-------------------------------|
A|-0---0---0---0---0---0---0---0---0---0---0---0---0---0---0---0---|
E|-----------------------------------------------------------------|


  2:23
  If you leave me babe
e|-----------------------------------------------------------------|
B|-------------1---3---------------------------1---3---------------|
G|-----0---2-----------0---2-----------0---2---0-------0---0h2-----|
D|-2-------------------------------2-------------------------------|  
A|-0---0---0---0---0---0---0---0---0---0---0---0---0---0---0---0---|
E|-----------------------------------------------------------------|


  2:28
  My pride
e|-----------------------------------------------------------------|
B|-3/5-3p1-3/5\3p1-----------------------------1~h~3---------------|
G|-----------------2-------------------0---2-----------0---0h2-----|
D|---------------------------------2-------------------------------|
A|-0---0---0---0---0---0---0---0---0---0---0---0---0---0---0---0---|
E|-----------------------------------------------------------------|


  2:34
  Will feel sorrow
e|-----------------------------------------------------------------|
B|-3/5-3---1---5\3~~p1-------------------------1~h~3---------------|
G|---------------------2---------------0---2-----------0---0h2-----|
D|---------------------------------2-------------------------------|
A|-0---0---0---0---0---0---0---0---0---0---0---0---0---0---0---0---|
E|-----------------------------------------------------------------|


  2:39
  Nobody baby
e|-----------------------------------------------------------------|
B|-3/5-3p1-3/5\3p1-----------------------------1---3---------------|
G|-----------------2-------------------0---2-----------0---2-------|
D|---------------------------------2-------------------------------| 
A|-0---0---0---0---0---0---0---0---0---0---0---0---0---0---0---0---|
E|-----------------------------------------------------------------|


  2:45
  Nobody but you darlin'
e|-3---------------------------------------------------------------|
B|-----3/5-1---1h3~~p1-------------------------1~h~3---------------|
G|---------------------2---------------0---2---0-------0---0h2-----|
D|---------------------------------2-------------------------------|
A|-0---0---0---0---0---0---0---0---0---0---0---0---0---0---0---0---|
E|-----------------------------------------------------------------|


  2:50
  On my mind
e|-----------------------------------------------------------------|
B|-1h3-----1---1-------------------------------1~h~3---------------|
G|-0-------0---0---2-------------------0---2-----------0---0h2~~p0-|
D|---------------------------------2-------------------------------| 
A|-0---0---0---0---0---0---0---0---0---0---0---0---0---0---0---0---|
E|-----------------------------------------------------------------|



Solo 2:


  2:56

e|-------------------------3---3h5-------------5---3---------------|
B|---------3/5-3---1---3/5-----------------------------5\3---------|
G|-----0-----------------------------------------------------------|
D|-2---------------------------------------------------------------|
A|-0---0---0---0---0---0---0---0---0---0---0---0---0---0---0---0---|
E|-----------------------------------------------------------------|


  3:01

e|-----3-------5---3---3-----------------3-----3-----3-----3-----3-|
B|-3/5-----5---------5-----5-----------5-----5-----5-----5-----5---|
G|-----------------------------------------------------------------|
D|-----------------------------------------------------------------|
A|-0---0---0---0---0---0---0---0---0---0---0---0---0---0---0---0---|
E|-----------------------------------------------------------------|


  3:07
                                       &=10    &=8/10
e|-----2-----3-----2---3-------8b------------------8---------------|
B|---4-----5-----4---------------------&-8-----&---10--------------|
G|-----------------------------------------9-----------------------|
D|-----------------------------------------------------------------|
A|-0---0---0---0---0---0---0---0---0---0---0---0---0---0---0---0---|
E|-----------------------------------------------------------------|


  3:12

e|-----8---8---&-----8-----8h10--------8---8---------------8-------|
B|-10----10------------10----------------10----10--10--------------|
G|-----------------------------------------------------------------|
D|-----------------------------------------------------------------|
A|-0---0---0---0---0---0---0---0---0---0---0---0---0---0---0---0---|
E|-----------------------------------------------------------------|


  3:18

e|-----5\3-3----------------------|
B|-------------5\3-1h3---3/5\0----|
G|--------------------------------|
D|--------------------------------|
A|-0---0---0---0---0---0---0---0--|
E|--------------------------------|



Verse 4:


  3:20
                           & = 5\3p1, but fast, only a half beat
e|-----------------------------------------------------------------|
B|-------------1~h~3-------&-------------------1~h~3---------------|
G|-----0---2---0-------0---------------0---2-----------0---0h2-----|
D|-2-------------------------------2-------------------------------|  
A|-0---0---0---0---0---0---0---0---0---0---0---0---0---0---0---0---|
E|-----------------------------------------------------------------|


  3:26

e|-----------------------------------------3-----------------------|
B|-------------1---3/5\3---1-------------------3/5\3p1-1h3p1-------|
G|-----0---2---------------------------0---------------------2p0---|
D|-2-------------------------------2-------------------------------|
A|-0---0---0---0---0---0---0---0---0---0---0---0---0---0---0---0---|
E|-----------------------------------------------------------------|


  3:31
  Baby
e|-----------------------------------------------------------------|
B|-------------1---3---------------------------1~h~3---------------|
G|-----0---2-----------0---2-----------0---2-----------0---0h2-----|
D|-2-------------------------------2-------------------------------|
A|-0---0---0---0---0---0---0---0---0---0---0---0---0---0---0---0---|
E|-----------------------------------------------------------------|


  3:37
  I love you girl
e|-----------------------------------------------------------------|
B|-3/5-3---1---5\3~~p1-------------------------1---3---------------|
G|---------------------2---------------0---2---0---0---0---0h2~~p0-|
D|---------------------------------2-------------------------------|
A|-0---0---0---0---0---0---0---0---0---0---0---0---0---0---0---0---|
E|-----------------------------------------------------------------|
                                   *      play this twice       *

  3:45
  Baby
e|-3---------------------------------------------------------------|
B|-----3/5\3---1-------------------------------1---3---------------|
G|-------------------------------------0---2-----------0---0h2-----|
D|---------------------------------2-------------------------------|  
A|-0---0---0---0---0---0---0---0---0---0---0---0---0---0---0---0---|
E|-----------------------------------------------------------------|


  3:50
  I love you girl
e|-----------------------------------------------------------------|
B|-3/5-3---1---5\3~~p1-------------------------1---3---------------|
G|---------------------2---------------0---2---0---0---0---0h2~~p0-|
D|---------------------------------2-------------------------------|
A|-0---0---0---0---0---0---0---0---0---0---0---0---0---0---0---0---|
E|-----------------------------------------------------------------|
                                   *      play this twice      *

  3:58
  Nobody baby
e|-----------------------------------------------------------------|
B|-3/5-3p1-3/5\3p1-----------------------------1---3---------------|
G|-----------------2-------------------0---2-----------0---0h2-----|
D|---------------------------------2-------------------------------| 
A|-0---0---0---0---0---0---0---0---0---0---0---0---0---0---0---0---|
E|-----------------------------------------------------------------|


  4:03
  Nobody but you darlin'
e|-3---------------------------------------------------------------|
B|-----3/5-1---1h3~~p1-------------------------1~h~3---------------|
G|-------------0-------2---------------0---2---0-------0---0h2-----|
D|---------------------------------2-------------------------------|
A|-0---0---0---0---0---0---0---0---0---0---0---0---0---0---0---0---|
E|-----------------------------------------------------------------|


  4:09
  On my mind
e|-----------------------------------------------------------------|
B|-1h3-----1---1-------------------------------1~h~3---------------|
G|-0-------0---0---2-------------------0---2-----------0---0h2~~p0-|
D|---------------------------------2-------------------------------| 
A|-0---0---0---0---0---0---0---0---0---0---0---0---0---0---0---0---|
E|-----------------------------------------------------------------|
                                   *   play this three times   *


Solo 3:


  4:20
  
e|-3-------------------3-------3h5-------------5---3---------------|
B|-----3/5-1---3---3/5-----5---------------------------5\3---------|
G|-----------------------------------------------------------------|
D|-----------------------------------------------------------------|
A|-0---0---0---0---0---0---0---0---0---0---0---0---0---0---0---0---|
E|-----------------------------------------------------------------|


  4:25

e|-----------------------------------------------------3-----------|
B|-1-------1---1/5\1-------------------1h3-1---1---3-------5\3-----|
G|---------------------2p0-----0h2-----------2---------------------|
D|-------------------------2---------------------------------------|
A|-0---0---0---0---0---0---0---0---0---0---0---0---0---0---0---0---|
E|-----------------------------------------------------------------|


  4:31

e|---------3-----------------------8b----0-----5---0-3---0-5---0---|
B|-1---3-------5\3-1---1---3/5-5-----------------------------------|
G|-------------------2---------------------------------------------|
D|-----------------------------------------------------------------|
A|-0---0---0---0---0---0---0---0---0---0---0---0---0---0---0---0---|
E|-----------------------------------------------------------------|


  4:36
                                           &=8/10  &=8h10
e|-8b----5p0---3---0-5---0-----8b--------------8---&---8-----------|
B|-----------------------------------------&-----10--------10\8----|
G|-----------------------------------------------------------------|
D|-----------------------------------------------------------------|
A|-0---0---0---0---0---0---0---0---0---0---0---0---0---0---0---0---|
E|-----------------------------------------------------------------|


  4:41
           &=8/10                        &=12  
e|-------------8-------8-----------15----&\8---8h10----8-----------|
B|-8---8---&-------10------10------------------------------10p8----|
G|-9---------------------------------------------------------------|
D|-----------------------------------------------------------------|
A|-0---0---0---0---0---0---0---0---0---0---0---0---0---0---0---0---|
E|-----------------------------------------------------------------|


  4:46
         &=12
e|-15----&\8---8h10----8-------------------3-----------------------|
B|-------------------------10--------------------------3/5-----1h3-|
G|-----------------------------------------------------------------|
D|-----------------------------------------------------------------|
A|-0---0---0---0---0---0---0---0---0---0---0---0---0---0---0---0---|
E|-----------------------------------------------------------------|


  4:51

e|--------------------------------|
B|-----1-------5\3-1---1h3p1------|
G|--------------------------------|
D|--------------------------------|
A|-0---0---0---0---0---0---0---0--|
E|--------------------------------|



Outro:


  4:54

e|-----------------------------------------------------------------|
B|-------------1~h~3---------------------------1~h~3---------------|
G|-----0---2---0-------0---0h2~~p0-----0---2---0-------0---0h2~~p0-|
D|-2-------------------------------2-------------------------------|  
A|-0---0---0---0---0---0---0---0---0---0---0---0---0---0---0---0---|
E|-----------------------------------------------------------------|

 
  5:00

e|---------------------------------3-------------------------------|
B|-------------1---3-------------------3/5-1---1h3-----0-----------|
G|-----0---2-----------0---0h2-----------------------------2p0-----|
D|-2---------------------------------------------------------------|  
A|-0---0---0---0---0---0---0---0---0---0---0---0---0---0---0---0---|
E|-----------------------------------------------------------------|


  5:04

e|-----------------------------------------------------------------|
B|-------------1---3---------------------------1---3/5\3p1---------|
G|-----0---2-----------0---0h2~~p0-----0---2---------------2-------|
D|-2-------------------------------2-------------------------------|  
A|-0---0---0---0---0---0---0---0---0---0---0---0---0---0---0---0---|
E|-----------------------------------------------------------------|


  5:10

e|-----------------------------3/5\3p0-----------------------------|
B|-------------1---3-------------------1h3p1---5\3p1---------------|
G|-----0---2-----------0---2---------------------------0h2p0---0h2-|
D|-2-----------------------------------0-------0-------------------|  
A|-0---0---0---0---0---0---0---0-----------------------3-------0---|
E|-----------------------------------------------------------------|
                               *   *   *   *   *   *   *   *   *     

            
            
Suggest correction
Creating personal tab
Creating personal tab
You can edit any tab online and save it as your Personal.

You can edit, replace or remove any tab part or add personal notes – all changes will be seen only by you.

Personal tabs can be accessed anytime from any device, even offline.
Learn more »
comments
print report bad tab
4 comments total. Showing first comments.
0 reply
Bodmfire 31 May 24, 2013 09:55 AM

wonderfull, thank you! i believe this took you some time, gj!

0 reply
Grantc70 10 Mar 16, 2015 02:10 PM

At 2:34, I believe the 2 0 2 should be one string lower. As in 2(d) 0(g) 2(g)
Thanks for another Great tab!

0 reply
coman91 1,552 Mar 16, 2015 04:03 PM

Good eye my friend I'll go fix that right now. Thanks for the kind words!

guest
You may want to rate the tab now too:
select rating
Wanna post a correction for this tab? Suggest correction