Oops, an error
Loading. Please wait.
We have an official Sister tab made by UG professional guitarists. Check out the tab »
×
64,969 views 69 this week
4 commentsread comments
1 2 3 4 5
x 32
add to favorites
×
Save as Personal and add changes to this tab that will be seen only by you. Learn more ›
×
You can save this tab as Personal to edit and correct it or add notes. All changes will be seen only by you. Learn more »
launch autoscroll
font size
0
reset
how to read this tab
guitar tuner
edit
Autoscroll
slow
fast
+/-
esc
set tempo
stop
Author
Difficulty
intermediate
By Blaque2pi

Heard this song and couldn't wait for someone to post tabs :) off their upcoming album "El Camino"

Let me know what you think! I gots solos and errthing!

Standard Tuning

[Intro]
      Em           Dm
e|-7--7--7-------5--5--5---|
B|-8--10-8-------6--8--6---|
G|-9--7--9-------7--5--7---|   
D|-9--9--9-------7--7--7---|
A|-7--7--7-------5--5--5---|
E|-------------------------|(x2)

      Am
e|-5--5--5---|
B|-5--5--5---|
G|-5--7--5---|   
D|-7--5--7p5-|
A|-7--7--7p5-|
E|-5--5--5---|(x4)


[Verse]

      Am                          Dm
e|-5--5--5-------5--5--5-------5--5--5-------5--5--5---|
B|-5--5--5-------5--5--5-------6--8--6-------6--8--6---|
G|-5--7--5-------5--7--5-------7--5--7p5-----7--5--7p5-|   
D|-7--5--7p5-----7--5--7p5-----7--7--7p5-----7--7--7p5-|
A|-7--7--7p5-----7--7--7p5-----5--5--5-------5--5--5---|
E|-5--5--5-------5--5--5-------------------------------|(x2)


[Chorus]

      Em             Dm
e|-7--7--7--7-----5--5--5--5-|
B|-8--8--8--8-----6--6--6--6-|
G|-9--9--9--9-----7--7--7--7-|   
D|-9--9--9--9-----7--7--7--7-|
A|-7--7--7--7-----5--5--5--5-|
E|---------------------------|(x2)


After First Chorus:

      Am
e|-5--5--5---|
B|-5--5--5---|
G|-5--7--5---|   
D|-7--5--7p5-|
A|-7--7--7p5-|
E|-5--5--5---|(x2)

Verse, the another chorus.

After Second Chorus:
Sister, Sister, What did they do   to you?
   Am                  Dm                  F
e|-5---------5---------5------5----5-------------------------------------|
B|-5---------5---------6------6----6------10--10--10--10--10--10--10--10-|
G|-5---------5---------7------7----7------10--10--10--10--10--10--10--10-|
D|-7---------7---------7------7----7------10--10--10--10--10--10--10--10-|
A|-7---------7---------5------5----5------8---8---8---8---8---8---8---8--|
E|-5---------5-----------------------------------------------------------|(x2)

      Em           Dm
e|-7--7--7-------5--5--5---|
B|-8--10-8-------6--8--6---|
G|-9--7--9-------7--5--7---|   
D|-9--9--9-------7--7--7---|
A|-7--7--7-------5--5--5---|
E|-------------------------|(x2)

      Am
e|-5--5--5---|
B|-5--5--5---|
G|-5--7--5---|   
D|-7--5--7p5-|
A|-7--7--7p5-|
E|-5--5--5---|(x2)

      Am                          Dm
e|-5--5--5-------5--5--5-------5--5--5-------5--5--5---|
B|-5--5--5-------5--5--5-------6--8--6-------6--8--6---|
G|-5--7--5-------5--7--5-------7--5--7p5-----7--5--7p5-|
D|-7--5--7p5-----7--5--7p5-----7--7--7p5-----7--7--7p5-|
A|-7--7--7p5-----7--7--7p5-----5--5--5-------5--5--5---|
E|-5--5--5-------5--5--5-------------------------------|

      Em             Dm
e|-7--7--7--7-----5--5--5--5-|
B|-8--8--8--8-----6--6--6--6-|
G|-9--9--9--9-----7--7--7--7-|   
D|-9--9--9--9-----7--7--7--7-|
A|-7--7--7--7-----5--5--5--5-|
E|---------------------------|(x2)

Solo Played over the last part:
           Am    Am             Dm       Dm        Em
e|-------------------------------------------------------------------|
B|----------------------------------8-8--------------------8---8-10--|
G|-----5-7-7s9-7-5s7-5------5-7-7s9------7-5-7p5h7-7s9-9-9---9-------|
D|-5h7------------------5h7------------------------------------------|
A|-------------------------------------------------------------------|
E|-------------------------------------------------------------------|
   Dm                Em                Dm
e|-------------------------------------10b12b10p8--------------|
B|-8s10-8--------------------8---8-10-------------10-8---------|
G|--------9-7s5-7p5--7s9-9-9---9-----------------------9p8p7-5-|
D|-------------------------------------------------------------|
A|-------------------------------------------------------------|
E|-------------------------------------------------------------|
Verse, then one last chorus, and then this part again

Sister, Sister, What did they do   to you?
   Am                  Dm                  F
e|-5---------5---------5------5----5-------------------------------------|
B|-5---------5---------6------6----6------10--10--10--10--10--10--10--10-|
G|-5---------5---------7------7----7------10--10--10--10--10--10--10--10-|
D|-7---------7---------7------7----7------10--10--10--10--10--10--10--10-|
A|-7---------7---------5------5----5------8---8---8---8---8---8---8---8--|
E|-5---------5-----------------------------------------------------------|(x2)


[Solo]

   Am               Am              Dm    Dm
e|----------------------------------------------|
B|-8h10-8h10-8------8h10-8h10-8-----------------|
G|-------------9-7--------------9-7-7s9-7-7s9-7-|
D|----------------------------------------------|
A|----------------------------------------------|
E|----------------------------------------------|

   Am               Am              Dm    Dm
e|----------------------------------------------|
B|-8h10-8h10-8------8h10-8h10-8-----------------|
G|-------------9-7--------------9-7-7s9-7-5s7-5-|
D|----------------------------------------------|
A|----------------------------------------------|
E|----------------------------------------------|

      Em           Dm
e|-7--7--7-------5--5--5---|
B|-8--10-8-------6--8--6---|
G|-9--7--9-------7--5--7---|   
D|-9--9--9-------7--7--7---|
A|-7--7--7-------5--5--5---|
E|-------------------------|(x2)

      Am
e|-5--5--5---|
B|-5--5--5---|
G|-5--7--5---|   
D|-7--5--7p5-|
A|-7--7--7p5-|
E|-5--5--5---|(x4)

Then he plays the verse a couple more times and ends abruptly on an Am chord.



************************************

| p  Pull-off
| h  Hammer-on
| b  Bend
| s  slide

************************************

            
            
Suggest correction
Creating personal tab
Creating personal tab
You can edit any tab online and save it as your Personal.

You can edit, replace or remove any tab part or add personal notes – all changes will be seen only by you.

Personal tabs can be accessed anytime from any device, even offline.
Learn more »
comments
print report bad tab
4 comments total. Showing first comments.
0 reply
slick666 10 Dec 27, 2011 04:59 AM

great tab man! Sounds good to me!

0 reply
Lesho 10 Jun 01, 2012 08:20 AM

the tab is awesome man! couple of things: i saw a live video where he plays the verse on Am e|-0-
B|-1-
G|-2-
D|-2-
A|-0-
E|-0-
instead of on 5-7-7. I personally think it is easier and sounds better on 5-7-7 but he wrote the song, not us haha. also on the first solo where you go into Dm the note on fret 8 sounds better if you play it on fret 7 as well as on the part after that.

0 reply
RTennyson17 10 Jul 26, 2013 05:08 AM

That is great, definitely 5*

guest
You may want to rate the tab now too:
select rating
Wanna post a correction for this tab? Suggest correction