Oops, an error
Loading. Please wait.

Stack Shot Billy tab

version 4
version 4

Whole song

Interactive

22,827 views 9 this week
3 commentsread comments
1 2 3 4 5
x 11
add to favorites
×
Save as Personal and add changes to this tab that will be seen only by you. Learn more ›
×
You can save this tab as Personal to edit and correct it or add notes. All changes will be seen only by you. Learn more »
launch autoscroll
font size
0
reset
how to read this tab
guitar tuner
edit
Autoscroll
slow
fast
+/-
esc
set tempo
stop
The Black Keys

Stack Shot Billy (Live at Terminal 5)

http://www.youtube.com/watch?v=XbIXf67BabM

Key

 b : Bend 
 r : Release
 / : Slide into
 \ : Slide out of
 h : Hammer on
 p : Pull off
(-): Ghost note
 v : Vibrato
 x : Mute

_____________________________________________________________________________
Open G Tuning 
_____________________________________________________________________________

Intro

Freetime

Fingerstyle using only thumb and index fingers. 


d|0-----0------0------0------0-------0-------|
B|0h1---1/3----3v-----3/6----6h8-----8v------|
G|-------------------------------------------|
D|-------------------------------------------|
G|-------------------------------------------|
D|-------------------------------------------|



d|0-----0------0-----0-----0-----0-----0-------|
B|6h8---8/10---10----8\6---6h8---6\3---3v------|
G|---------------------------------------------|
D|---------------------------------------------|
G|---------------------------------------------|
D|---------------------------------------------|



d|0-----0------0------0------0-------0-------|
B|0h1---1/3----3v-----3/6----6h8-----8v------|
G|-------------------------------------------|
D|-------------------------------------------|
G|-------------------------------------------|
D|-------------------------------------------|



d|0------0-------0-------0--------0--0--0--------0--0--0--0------|
B|8/10---10/12---10h12---12/13----12-13-13/15----13-12-13-12\8---|
G|--------------------------------------------------0------------|
D|-------------------------------------------------------------0-|
G|---------------------------------------------------------------|
D|---------------------------------------------------------------|



d|-0--0---0-----0------------0--0----0--0---------------------------------|
B|/12-10--8h10--8\6--0--6\5-----5\3-----1------------------1h3--1---------|
G|------------------------------------------3b-0----0--3b---------3p0---0-|
D|-----------------------------------------------3b-------------------3---|
G|------------------------------------------------------------------------|
D|------------------------------------------------------------------------|



d|---------------------|
B|---------------------|
G|---------------------|
D|0---0-3--------------|
G|--5-----3p0----------|
D|------------3h5------|

_____________________________________________________________________________

Intro II


d|--------------------------|--------------------------|
B|1h3----1------------------|----1--3------------------|
G|0------0----3b--0------0--|3b--0-----3vp0------0-----|
D|----------------0--3b--0--|---------------0h3--------|
G|--------------------------|----------------------3b--|
D|--------------------------|--------------------------|



d|-|-------------------------|----------------------------|
B|-|1h3----1-----------------|----1-----------------------|
G|-|0------0----3b--0-----0--|3b--0--0--3p0---------0-----|
D|-|----------------0-3b--0--|-------0--0------0h3--------|
G|p|0------------------------|------------------------3b--|
D|-|-------------------------|----------------------------|



d|--------------------------|--------------------------|
B|1h3----1------------------|----1--3------------------|
G|0------0----3b--0------0--|3b--0-----3vp0------0-----|
D|----------------0--3b--0--|---------------0h3--------|
G|--------------------------|----------------------3b--|
D|--------------------------|--------------------------|



d|-|--------------------------|---------------------------|
B|-|1h3----1------------------|----1----------------0-----|
G|-|0------0----3b--0------0--|3b--0--0--3p0--------0-----|
D|-|----------------0--3b--0--|-------0--0----------0-----|
G|p|0-------------------------|------------------------0--|
D|-|--------------------------|---------------------------|
                                                    .

_____________________________________________________________________________

Verse


d|--------------------|-------------------------|
B|1h3---1-------------|---1-3-------------------|
G|----------3b-0----0-|3b-----3b-----------0----|
D|---------------3b---|-------------0h3---------|
G|0-----0---0----0----|0----0-0--0----------3b--|
D|--------------------|-------------------------|



d|--------------------|-------------------------|
B|1h3---1-------------|---1---------------------|
G|----------3b------0-|3b-----3p0---------0-----|
D|---------------3b---|--------------0h3--------|
G|0-----0---0----0----|0----0-0---0---------3b--|
D|--------------------|-------------------------|



d|--------------------|-------------------------|
B|1h3---1-------------|---1-3-------------------|
G|----------3b-0----0-|3b-----3b-----------0----|
D|---------------3b---|-------------0h3---------|
G|0-----0---0----0----|0----0-0--0----------3b--|
D|--------------------|-------------------------|



d|--------------------|-------------------0-----|
B|1h3---1-------------|---1---------------0-----|
G|----------3b------0-|3b-0---3p0---------0--0--|
D|---------------3b-0-|-------------------0--0--|
G|0-----0---0---------|0----0-0--------------0--|
D|--------------------|----------------------0--|


_____________________________________________________________________________

Chorus/Outro


d|-----------------|---5----3p0-------------|
B|-----------------|0--3--------1-----------|
G|5---5---5-3------|0--0-----------3b-p0-0--|
D|5---5---5-3------|0--------------------0--|
G|5---5---5-3------|0-------0---0--0-----0--|
D|-----------------|---------------------0--|



d|-----------------|--/3----3/5-5-5---|
B|-----------------|0-/3----3/5-5-5---|
G|5---5---5-3------|0--0--------0-0-0-|
D|5---5---5-3------|0---------------0-|
G|5---5---5-3------|0---------------0-|
D|-----------------|----------------0-|



d|-----------------|---5----3p0-------------|
B|-----------------|0--3--------1-----------|
G|5---5---5-3------|0--0-----------3b-p0----|
D|5---5---5-3------|0-----------------------|
G|5---5---5-3------|0-------0---0--0-----0--|
D|-----------------|------------------------|


                               
d|-------------------|----------------|
B|1h3---1------------|------------0---|
G|----------3b---0---|------------0---|
D|-------------------|3/5v--------0---|
G|-------------------|--------------0-|
D|-------------------|----------------|
                                  .                           
_____________________________________________________________________________

Bridge


d|--------------------|------------------------|
B|1h3---1-------------|---1-3------------------|
G|----------3b-0----0-|3b-----3b----3/12v-----\|
D|---------------3b---|-------------3/12v-----\|
G|0-----0---0----0----|0----0-0-----3/12v-----\|
D|--------------------|------------------------|
                                    *with slide


d|--------------------|--3h5---3p0-----------|
B|1h3---1-------------|------------1---------|
G|----------3b-0----0-|--------------3b-p0---|
D|---------------3b---|----------------------|
G|0-----0---0----0----|0-------0---0------0--|
D|--------------------|----------------------|


_____________________________________________________________________________

Second Bridge


d|--------------------|------------------------|
B|1h3---1-------------|---1-3------------------|
G|----------3b-0----0-|3b-----3b----3/12v-----\|
D|---------------3b---|-------------3/12v-----\|
G|0-----0---0----0----|0----0-0-----3/12v-----\|
D|--------------------|------------------------|
                                    *


d|--------------------|-------------------------|
B|1h3---1-------------|---1---------------------|
G|----------3b------0-|3b-----3b----10/12v-----\|
D|---------------3b---|-------------10/12v-----\|
G|0-----0---0----0----|0----0-0-----10/12v-----\|
D|--------------------|-------------------------|
                                    *     
   
   
d|--------------------|------------------------|
B|1h3---1-------------|---1-3------------------|
G|----------3b-0----0-|3b-----3b----3/12v-----\|
D|---------------3b---|-------------3/12v-----\|
G|0-----0---0----0----|0----0-0-----3/12v-----\|
D|--------------------|------------------------|
                                    *
                              

d|--------------------|----------------|
B|1h3---1-------------|---1------------|
G|----------3b------0-|3b-----3b----0--|
D|---------------3b---|-------------0--|
G|0-----0---0----0----|0----0-0-----0--|
D|--------------------|-------------0--|
                                        

_____________________________________________________________________________     

Solo


d|-----------------|--------------------|
B|-----------------|--------------------|
G|5---5---5-3----5/|12v----12/15v----0--|
D|5---5---5-3----5/|12v----12/15v----0--|
G|5---5---5-3----5/|12v----12/15v----0--|
D|-----------------|-----------------0--|
                 * 


d|-----------------------|------------------------------------------------|
B|----------------12\10--|------12\10---------12\10---------12\10---------|
G|5---5---5-3-/12--------|10/12---------10/12---------10/12---------12\---|
D|5---5---5-3------------|------------------------------------------12\---|
G|5---5---5-3------------|------------------------------------------12\---|
D|-----------------------|------------------------------------------------|
              * 


d|-----------------|-----------------------------------------------|
B|-----------------|----12----12-------15-------17-------15--------|
G|5---5---5-3----5/|12-----12----12/15----15/17----17\15----12v\---|
D|5---5---5-3----5/|12---------------------------------------------|
G|5---5---5-3----5/|12---------------------------------------------|
D|-----------------|-----------------------------------------------|
                 * 


d|-------------------|-----------------------|
B|1h3---1------------|-----------------------|
G|0-----0---3v---0---|-----------------------|
D|-------------------|3/5v----5\3\p0---------|
G|-------------------|---------------5\3\p0--|
D|-------------------|-----------------------|
                      *

_____________________________________________________________________________ 

Third Bridge


Palm mute the bass notes by lightly placing the edge of your picking hand 
on the strings near the bridge


d|--------------------|-------------------------|
B|1h3---1-------------|---1-3-------------------|
G|----------3b-0----0-|3b-----3b-----------0----|
D|---------------3b---|-------------0h3---------|
G|0-----0---0----0----|0----0----0----------3b--|
D|--------------------|-------------------------|



d|--------------------|-------------------------|
B|1h3---1-------------|---1---------------------|
G|----------3b-0----0-|3b-----3p0---------0-----|
D|---------------3b---|--------------0h3--------|
G|0-----0---0----0----|0----0-----0---------3b--|
D|--------------------|-------------------------|


_____________________________________________________________________________ 
  
Breakdown



d|-------------------|--------------------|
B|-------------------|--------------------|
G|-------------------|--------------------|
D|-------------------|--------------------|
G|0--3b--0------0h3--|0--3b--0-------0h3--|
D|---------0h3-------|---------0h3--------|



d|---------------|---------------------|------------------|
B|---------------|---------------------|------------------|
G|---------------|---------------------|------------------|
D|---------------|---------------------|---------------0--|
G|0--3--5----3-5-|5b6-5-3-3h5--3p0-----|-----3--3------0--|
D|---------------|-----------------3-4-|5--5------5--5-3--|



d|------------------|-------------------|---------------------|
B|------------------|-------------------|---------------------|
G|------------------|-------------------|---------------------|
D|---------------0--|-------------------|---------------------|
G|-----3--3------0--|-----3--3-5--5-3-5-|5b6-5-3-3h5--3p0-----|
D|5--5------5--5-3--|5--5---------------|-----------------3-4-|



d|0----------------|-----------------|0----------------|
B|0----------------|-----------------|0----------------|
G|0----------------|------------x----|0----------------|
D|0----------------|------------x----|0----------------|
G|x----------------|------------x----|x----------------|
D|5----------------|------------x-3--|5----------------|



d|-----------------|0----------------|-----------------|
B|-----------------|0----------------|-----------------|
G|------------x----|0----------------|-----------------|
D|------------x----|0----------------|-----------------|
G|------------x----|x----------------|-----------------|
D|------------x-3--|5----------------|-----------------|



d|0----------------|-----------------|
B|0----------------|-----------0-----|
G|0----------------|-----------0-----|
D|0----------------|-----------0-----|
G|x----------------|--------------0--|
D|3h5--------------|-----------------|
                               .

_____________________________________________________________________________ 

Final Verse


d|--------------------------|--------------------------|
B|1h3----1------------------|----1--3------------------|
G|------------3b--0------0--|3b--------3---------0-----|
D|-------------------3b-----|---------------0h3--------|
G|--------------------------|----------------------3b--|
D|--------------------------|--------------------------|



d|------------------------|----------------------------|
B|1h3----1----------------|----1-----------------------|
G|------------3b--0-------|3b-----0--3p0---------0-----|
D|------------------3b----|-----------------0h3--------|
G|------------------------|------------------------3b--|
D|------------------------|----------------------------|



d|--------------------------|--------------------------|
B|1h3----1------------------|----1--3------------------|
G|------------3b--0------0--|3b--------3---------0-----|
D|-------------------3b-----|---------------0h3--------|
G|--------------------------|----------------------3b--|
D|--------------------------|--------------------------|



d|-|-------------------|-------------------x-----|
B|-|1h3---1------------|---1---------------x-----|
G|-|0-----0---3b-----0-|3b-0---3p0---------x--0--|
D|-|--------------3b-0-|-------------------x--0--|
G|p|0---------0--------|0----0-0-----------x--0--|
D|-|-------------------|-------------------x--0--|

            
            
Suggest correction
Creating personal tab
Creating personal tab
You can edit any tab online and save it as your Personal.

You can edit, replace or remove any tab part or add personal notes – all changes will be seen only by you.

Personal tabs can be accessed anytime from any device, even offline.
Learn more »
comments
print report bad tab
3 comments total.
0 reply
TheMattones 32 Feb 27, 2012 02:41 PM

This tab is pure perfection, Kudos and much, much more.

0 reply
dragon27jm 70 Apr 16, 2012 03:33 PM

Fantastic tab. You might want to do the studio version as well because no one else seems to get it right.

0 reply
NessboyUK 10 Jun 05, 2013 02:38 AM

Brilliant Tab. Never seen any tab so perfect.

guest
You may want to rate the tab now too:
select rating
Wanna post a correction for this tab? Suggest correction