Oops, an error
Loading. Please wait.

The Lengths tab

version 2
version 2

Whole song

33,296 views 117 this week
6 commentsread comments
1 2 3 4 5
x 28
add to favorites
×
Save as Personal and add changes to this tab that will be seen only by you. Learn more ›
×
You can save this tab as Personal to edit and correct it or add notes. All changes will be seen only by you. Learn more »
launch autoscroll
font size
0
reset
how to read this tab
guitar tuner
edit
Autoscroll
slow
fast
+/-
esc
set tempo
stop
                                  ~~~~~~~~~~~~~~~~~~~~~~~~~~~~~~~~~~~~~~~
                                                The Lengths
                                             by: The Black Keys
                                              Rubber Factory
                                  ~~~~~~~~~~~~~~~~~~~~~~~~~~~~~~~~~~~~~~~~
Original Contribution by: Connor O.
Tuning: Standard
Capo: 6th (A# D# G# C# F A#)
Bass-line tempo: ~138 bpm



Tuning is standard. Put a capo on the 6th fret and fine tune to
(A# D# G# C# F A#). I'm labelling all the chord boxes in standard
(E A D G B e) to simplify things.

There are two guitars. There's the acoustic lead and a electric that plays
fills with a slide. I tabbed the slide portions on 5/16/14 at the request of
"braindamage828". I put the slide guitar under the corresponding lead guitar part,
I'll label at 0:14 as an example. You can play it easily on the acoustic guitar with
the capo on, but the effects on the recording suggest (to me anyways) that it was 
recorded on an electric guitar.

The acoustic lead is playing two chords, basically. A CMaj chord and a
FMaj7 chord. With the capo on those chords are F#Maj (032010) and BMaj7
(003210), respectively.

Comment or message any ideas or corrections. Please rate my tab. If you've got
problems with the tab, I'd encourage you to contact me with those problems so I
can fix the tab or provide advice for playing. Don't just give me a poor rating
and not give me any feedback. The idea is for us all to work together to create
a perfect finished product. This tab just represents the best I can do. It's 
definitely up for peer review.



Key:
where # represents a number

#h# - hammer
#p# - pull
/ \ - slides, up and down respectively.
 *  - time keeper, located under chord boxes
      


Intro:


  0:00

e|-----------------------------------------------------------------|
B|-----------------------------1-------1---------------1-----1-----|
G|-----0---------------0-------0---0h2-------------0h2---0h2---2---|
D|-0h2-------------0h2-----0h2-----3-------3---3---3---------------|
A|---------3---3---3-------3---------------------------------------|
E|-----------------------------------------------------------------|
   *   *   *   *   *   *   *   *   *   *   *   *   *   *   *   *

  0:07

e|-----------------------------------------------------3-3---------|
B|-------------------------------------1-----------3/5-----5\3-1---|
G|-----0---------------0-------0---0h2-2---2-----------------------|
D|-0h2-2-----------0h2-2---0h2-0---3---3---3-----------------------|
A|-3-------3-------3---3---3---3-----------------------------------|
E|-----------------------------------------------------------------|
   *   *   *   *   *   *   *   *   *   *   *   *   *   *   *   *


Bridge:


  0:14                    

e|-------------------0-----3p0---0-------------------0-----3p0-----|
B|---------1-----1-------------1-----------1-----1h3-----------1-1-|
G|---------0-------------------------------2-------------------2-2-| LEAD
D|---------------------------------3-------------------3---3-------|
A|-3-----------3---------------------------------------------------|
E|-----------------------------------------------------------------|
       *   *   *   *   *   *   *   *   *   *   *   *   *   *   * 



e|-----------------------------------------------------------------|
B|-3~/~8-------------------8/10~~\~5-------------------------------|
G|-----------------------------------------------------------------| SLIDE
D|-----------------------------------------------------------------|
A|-----------------------------------------------------------------|
E|-----------------------------------------------------------------|    
   *   *   *   *   *   *   *   *   *   *   *   *   *   *   *   * 

  0:20                   
  
e|-------------------0-----0---0-0---------0---0-3-0---------0-----|
B|---------1-----1h3-------0---1-1---------1---------0---1h3-------|
G|---------0-------------------0-0-----------------------------0-0-|
D|---------------------------------3-----------3-------3-----------|
A|-3-----------3-------3-------------------------------------------|
E|-----------------------------------------------------------------|
       *   *   *   *   *   *   *   *   *   *   *   *   *   *   * 



e|-----------------------------------------------------------------|
B|-3~/~8-------------------8/10~~\~5-----------5/8\5~~~~~~\3~~~~~~~|
G|-----------------------------------------------------------------|
D|-----------------------------------------------------------------|
A|-----------------------------------------------------------------|
E|-----------------------------------------------------------------|
   *   *   *   *   *   *   *   *   *   *   *   *   *   *   *   *


Verse 1:


  0:27                                   
           Tell me where you're goin'            
e|-----------------------------------------------3p0---------------|
B|---------1---------------1---------------1---------1-1---1---1---|
G|---------0---------------0---2-----------2-----------0---2---0---|
D|-----------------------------------------3---3-------3---3---3---|
A|-3-------------------3-------------------------------------------|
E|-----------------------------------------------------------------|
   *   *   *   *   *   *   *   *   *   *   *   *   *   *   *   *



e|-----------------------------------------------------------------|
B|/1---------------------------------------------------------------|
G|-----------------------------------------------------------------|
D|-----------------------------------------------------5/7~~~~~~~\~|
A|-----------------------------------------------------------------|
E|-----------------------------------------------------------------|
   *   *   *   *   *   *   *   *   *   *   *   *   *   *   *   *

  0:34
   What is         goin'       wrong
e|-----------------------------------------------3p0-------0-------|
B|---------1---------------1---------------1---------1-1---1---1-1-|
G|---------0---------------0---0---2-------2-----------0---2---0-0-|
D|---------2-------2-------2---------------3---3-------3---3---3-3-|
A|-3-------3---3-------3---3---------------------------------------|
E|-----------------------------------------------------------------|
   *   *   *   *   *   *   *   *   *   *   *   *   *   *   *   *



e|-----------------------------------------------------------------|
B|-----------------------------------------------------------------|
G|-----------------------------------------5/7---------5/7---------|
D|~5-----------------------------------------------------------7\5-|
A|-----------------------------------------------------------------|
E|-----------------------------------------------------------------|
   *   *   *   *   *   *   *   *   *   *   *   *   *   *   *   *

  0:41                                   
                   Felt you leavin'                              Be
e|---------0-------------------------------0-----3p0---------------|
B|---------1-----1---------1---------------1---------1-1---1---1---|
G|---------0-----0---------0---0---2-------2-----------0---2---0---|
D|-----------------2---------------------------3-------3---3---3---|
A|-3-----------3-------3-------------------------------------------|
E|-----------------------------------------------------------------|
   *   *   *   *   *   *   *   *   *   *   *   *   *   *   *   *  



e|-----------------------------------------------------------------|
B|-----------------------------------------------------------------|
G|-----------------------------------------------------5/7~~~~~~~~~|
D|-----------------------------------------------------------------|
A|-----------------------------------------------------------------|
E|-----------------------------------------------------------------|
   *   *   *   *   *   *   *   *   *   *   *   *   *   *   *   *

  0:48
   fore you'd      even        gone
e|---------0-------------------------------------3p0-------0-------|
B|---------1-----1---------1---------------1---------1h3-------1-1-|
G|---------0-----0---------0---------------2-------------------0-0-|
D|-----------------2-------2---2---3-----------3---------------3-3-|
A|-3-----------3-------3---3---------------------------------------|
E|-----------------------------------------------------------------|
   *   *   *   *   *   *   *   *   *   *   *   *   *   *   *   *


     &=10
e|-----------------------------------------------------------------|
B|-----------------------------------------------------------------|
G|/9/&\9-------------------------------5/7-------------------------|
D|-----------------------------------------------------------------|
A|-----------------------------------------------------------------|
E|-----------------------------------------------------------------|
   *   *   *   *   *   *   *   *   *   *   *   *   *   *   *   *

  0:55
  Hold me now                                      never   ever
e|---------0---------------0---------------0-----------------------|
B|---------1---------------1---------------1---------------1---1---|
G|---------0---------------0---------------2---------------2---0---|
D|-----2---2-----2---------2---0---2-------3---------------3---3---|
A|-3-------3---3---3---3---3---------------------------------------|
E|-----------------------------------------------------------------|
   *   *   *   *   *   *   *   *   *   *   *   *   *   *   *   *



e|-----------------------------------------------------------------|
B|-3/8~~~~~~~~~~~~~~~~~~~~~~~~/10~\5-------------------------------|
G|---------------------------------------------------------5~/~7~\~|
D|-----------------------------------------------------------------|
A|-----------------------------------------------------------------|
E|-----------------------------------------------------------------|
   *   *   *   *   *   *   *   *   *   *   *   *   *   *   *   *

  1:02
                   Hold me a   gain
e|---------0---------------0---------------0---------0-------------|
B|---------1---------------1---------------1-----1h3-------3p1-1-1-|
G|---------0---------------0---------------2-------------------0-0-|
D|-----2---2---------------2---0---2-------3---3-------3-------3-3-|
A|-3-------3---3-----------3---------------------------------------|
E|-----------------------------------------------------------------|
   *   *   *   *   *   *   *   *   *   *   *   *   *   *   *   *



e|-----------------------------------------------------------------|
B|-----------------------------------------------------------------|
G|~5-------------------------------------------------------5/7~~~~~|
D|-------------------------5/7~~~~\5-------------------------------|
A|-----------------------------------------------------------------|
E|-----------------------------------------------------------------|
   *   *   *   *   *   *   *   *   *   *   *   *   *   *   *   *

  1:09
                   No more     talk              can take me from this             
e|---------0---------------0---------------0-----0-----------------|
B|---------1-----1---------1---------------1-----1---------1---1---|
G|---------0-----0---------0---0---2-------2-----2---------2---0---|
D|-----2---2-------2-------2---------------3-----3-3-------3---3---|
A|-3-------3---3-------3---3---------------------------------------|
E|-----------------------------------------------------------------|
   *   *   *   *   *   *   *   *   *   *   *   *   *   *   *   *



e|-----------------------------------------------------------------|
B|-----------------------------------------------------------------|
G|\5---------------------------------------5~/~7~~~~~~~~~~~~~~~~~~~|
D|-----------------------------------------------------------------|
A|-----------------------------------------------------------------|
E|-----------------------------------------------------------------|
   *   *   *   *   *   *   *   *   *   *   *   *   *   *   *   *

  1:15
                   Pain I'm in
e|---------0---------------0---------------0---------0-----0-------|
B|---------1---------------1---------------1-----1h3-------1-------|
G|---------0---------------0---------------2---------------2-------|
D|-----2---2-----2---------2---0---2-------3---3-------3---3-------|
A|-3-------3---3---3---3---3---------------------------------------|
E|-----------------------------------------------------------------|
   *   *   *   *   *   *   *   *   *   *   *   *   *   *   *   



e|-----------------------------------------------------------------|
B|-----------------------------------------------------------------|
G|\5---------------------------------------------------------------|
D|-----------------5~/~7~~~~~~~~~~\5-------------------------------|
A|-----------------------------------------------------------------|
E|-----------------------------------------------------------------|
   *   *   *   *   *   *   *   *   *   *   *   *   *   *   *   *

  1:22
                                                       Pain I'm in
e|-----0-----------------------0-------0-----------------------x-------|
B|-----0-----------------------0-------1-----------------------x-------|
G|-2/4-4---4---4---4---4---4---4---\---2-----------------------x-------|
D|-3/5-5---5---5---5---5---5---5-------3-----------------------x-------|
A|---------------------------------------------------------------------|
E|---------------------------------------------------------------------|
   *   *   *   *   *   *   *   *   *   *   *   *   *   *   *   *   *  



e|---------------------------------------------------------------------|
B|-----------------------------------------------------1~~~~~~~/~~~~~~~|
G|---------------------------------------------------------------------|
D|-----5~/~7~~~~~~~~~~~~~~~~~~~~-------7\5-----------------------------|
A|---------------------------------------------------------------------|
E|---------------------------------------------------------------------|
   *   *   *   *   *   *   *   *   *   *   *   *   *   *   *   *   *


Bridge:


  1:29

e|-------------------0-------------------------------0-----3p0-----|
B|---------1-----1h3-------3p1-1-1-1---1---1-----1h3-----------1-1-|
G|---------0-------------------0-0-2-------2-------------------2-0-|
D|-----------------------------2-2-3-------3---3-------3-------3-3-|
A|-3-----------3-------3-------3-3---------------------------------|
E|-----------------------------------------------------------------|
   *   *   *   *   *   *   *   *   *   *   *   *   *   *   *   *     


                         &=10
e|-----------------------------------------------------------------|
B|~8-------------------8\&~~~~~~~~\5-----------------------8\3\1~~~|
G|-----------------------------------------------------------------|
D|-----------------------------------------------------------------|
A|-----------------------------------------------------------------|
E|-----------------------------------------------------------------|
   *   *   *   *   *   *   *   *   *   *   *   *   *   *   *   *

  1:35

e|-----------------------------------------------------------------|
B|---------1-----------1---------------1---------------------------|
G|---------0-----------0-------0---0h2-2-----------0h2-0h2-0h2-0---|
D|-----2-----------0h2---------0---3---3-----------3---3---3---3---|
A|-3-----------3---3-------3---------------------------------------|
E|-----------------------------------------------------------------|
   *   *   *   *   *   *   *   *   *   *   *   *   *   *   *   *     


   mute strings when you slide up to 5
e|-x---------------------------------------------------------------|
B|/x-8---------------------8/10~~~~\5----------5/8\5~~~\~~~3~~~\~~~|
G|-x---------------------------------------------------------------|
D|-x---------------------------------------------------------------|
A|-x---------------------------------------------------------------|
E|-x---------------------------------------------------------------|
   *   *   *   *   *   *   *   *   *   *   *   *   *   *   *   *


Verse 2:


  1:42                                     
           See the moonlight shinin'                
e|-----------------------------------------0-----3p0-------0---0---|
B|-----------------1-------1---------------1---------1-1---1---1---|
G|-----0---0h2-0---0-------0---------------2-----------0---2---0---|
D|-0h2---------------------2---0---2-------3---3-------3---3---3---|
A|-3-------3-----------3---3---------------------------------------|
E|-----------------------------------------------------------------|
   *   *   *   *   *   *   *   *   *   *   *   *   *   *   *   *



e|-----------------------------------------------------------------|
B|~1---------------------------------------------------------------|
G|-----------------------------------------------------------------|
D|---------------------------------------------------------5/7~~~~~|
A|-----------------------------------------------------------------|
E|-----------------------------------------------------------------|
   *   *   *   *   *   *   *   *   *   *   *   *   *   *   *   *

  1:49
   On your         window      pane
e|---------0---------------0---------------0-----3p0-------0-------|
B|---------1---------------1---------------1---------1h3---3---1-1-|
G|---------0---------------0---------------2---------------2---2-0-|
D|---------2-----2---------2---2---3-------3---3-----------3---3-3-|
A|-3-------3---3---3---3---3---------------------------------------|
E|-----------------------------------------------------------------|
   *   *   *   *   *   *   *   *   *   *   *   *   *   *   *   *



e|-----------------------------------------------------------------|
B|-------------------------------------------------------------1~/~|
G|-----------------------------------------------------------------|
D|\5---------------------------------------------------------------|
A|-----------------------------------------------------------------|
E|-----------------------------------------------------------------|
   *   *   *   *   *   *   *   *   *   *   *   *   *   *   *   *

  1:56                                     
                   See it leave you                               As
e|---------0---------------0---------------0-----3p0-0-------------|
B|---------1-----1---------1---------------1---------1-----1---1---|
G|---------0-----0---------0---0---2-------2---------2-----2---0---|
D|---------2-------2-------2---------------3---3-------3---3---3---|
A|-3-------3---3-------3---3---------------------------------------|
E|-----------------------------------------------------------------|
   *   *   *   *   *   *   *   *   *   *   *   *   *   *   *   *



e|-----------------------------------------------------------------|
B|~8---------------------------------------------8/10~~~~~~~~~\8---|
G|-----------------------------------------------------------------|
D|-----------------------------------------------------------------|
A|-----------------------------------------------------------------|
E|-----------------------------------------------------------------|
   *   *   *   *   *   *   *   *   *   *   *   *   *   *   *   *

  2:03
   faithful        as it       came
e|---------0---------------0---------------0-----3p0-0---------0-0-|
B|---------1-----1---------1---------------1---------1-----1---1-1-|
G|---------0-----0---------0---0---2-------2---------2-----2---0-0-|
D|---------2-------2-------2---------------3---3-------3---3---3-3-|
A|-3-------3---3-------3---3---------------------------------------|
E|-----------------------------------------------------------------|
   *   *   *   *   *   *   *   *   *   *   *   *   *   *   *   *



e|-----------------------------------------------------------------|
B|-----------------------------------------------------------------|
G|---------------------5/7~~~~~~~~\5-------------------------------|
D|-----------------------------------------5/7-----------------5---|
A|-----------------------------------------------------------------|
E|-----------------------------------------------------------------|
   *   *   *   *   *   *   *   *   *   *   *   *   *   *   *   *

  2:09
               Please yourself                 so you don't have to         
e|---------0---------------0---------------0---------------0---0---|
B|---------1---------------1---------------1---------------1---1---|
G|-----0---0---------------0---------------2---------------2---0---|
D|-----2---2---------------2---0---2-------3---------------3---3---|
A|-3-------3---3---3---3---3---------------------------------------|
E|-----------------------------------------------------------------|
   *   *   *   *   *   *   *   *   *   *   *   *   *   *   *   *



e|-----------------------------------------------------------------|
B|-----------------------------------------------------------------|
G|-5-------------------------------5/7-------------7\5-------------|
D|-----------------------------------------------------------------|
A|-----------------------------------------------------------------|
E|-----------------------------------------------------------------|
   *   *   *   *   *   *   *   *   *   *   *   *   *   *   *   *

  2:16
                   be afraid
e|---------0---------------0---------------0-----3p0-0-----0-------|
B|---------1---------------1---------------1---------1-----1---1---|
G|---------0---------------0---------------2---------2-----2---0---|
D|-----2---2-----2---------2---0---2-------3---3-------3---3---3---|
A|-3-------3---3---3---3---3---------------------------------------|
E|-----------------------------------------------------------------|
   *   *   *   *   *   *   *   *   *   *   *   *   *   *   *   *



e|-----------------------------------------------------------------|
B|-1/5-------------------------------------------------------------|
G|---------------------------------5/7-------------------------5/7\|
D|-------------------------------------------------5/7\5-----------|
A|-----------------------------------------------------------------|
E|-----------------------------------------------------------------|
   *   *   *   *   *   *   *   *   *   *   *   *   *   *   *   *

  2:23
                   Make amends              or carry on a                      
e|---------0-------------------------------0-----------------------|
B|---------1---------------1---------------1---------------1-------|
G|---------0-----0---------0---------------2---------------2-------|
D|-----2---2-----2---------2---0---2-------3---------------3-------|
A|-3-------3---3---3---3---3-----------------------------------0---|
E|-----------------------------------------------------------------|
   *   *   *   *   *   *   *   *   *   *   *   *   *   *   *   *



e|-----------------------------------------------------------------|
B|-----------------------------------------------------------------|
G|\5---------------------------------------------------------------|
D|---------------------------------5---------------5/7~~~~~~~~~~~~~|
A|-----------------------------------------------------------------|
E|-----------------------------------------------------------------|
   *   *   *   *   *   *   *   *   *   *   *   *   *   *   *   *

  2:30
                   another way
e|---------0---------------0---------------0-----3p0-------0-------|
B|---------1-----1---------1---------------1---------1-1---1-------|
G|---------0-----0---------0---0---2-------2---------2-2---2-------|
D|---------2-------2-------2---------------3---3-----3-3---3-------|
A|-3-------3---3-------3---3---------------------------------------|
E|-----------------------------------------------------------------|
   *   *   *   *   *   *   *   *   *   *   *   *   *   *   *   



e|-----------------------------------------------------------------|
B|-----------------------------------------------------------------|
G|-----------------------------------------------------------------|
D|\5---------------------------------------------------------------|
A|-----------------------------------------------------------------|
E|-----------------------------------------------------------------|
   *   *   *   *   *   *   *   *   *   *   *   *   *   *   *   *

  2:36
                                                       another way
e|-----0-----------------------0-------0-----------------------x-------|
B|-----0-----------------------0-------1-----------------------x-------|
G|-2/4-4---4---4---4---4---4---4---\---2-----------------------x-------|
D|-3/5-5---5---5---5---5---5---5-------3-----------------------x-------|
A|---------------------------------------------------------------------|
E|---------------------------------------------------------------------|
   *   *   *   *   *   *   *   *   *   *   *   *   *   *   *   *   *  



e|---------------------------------------------------------------------|
B|-----------------------------------------------------1~~~~~~~/~~~~~~~|
G|---------------------------------------------------------------------|
D|-----5/7---------------------9~~~\~~~5-------------------------------|
A|---------------------------------------------------------------------|
E|---------------------------------------------------------------------|
   *   *   *   *   *   *   *   *   *   *   *   *   *   *   *   *   *


Bridge:


  2:43

e|---------------3p0-----------0---------------------0-------------|
B|---------1---------1-----1-1-1-----------1-----1h3-------3p1-1-1-|
G|---------0---------------0-0-0-----------2-------------------0-0-|
D|-------------------------2-2-0---3-------3---3-------3-------3-3-|
A|-3-----------3-------3---3-3-3-----------------------------------|
E|-----------------------------------------------------------------|
   *   *   *   *   *   *   *   *   *   *   *   *   *   *   *   *



e|-----------------------------------------------------------------|
B|/8-----------------------8/10~~~\5---------------5\3~~~~~~~~~~~~~|
G|-----------------------------------------------------------------|
D|-----------------------------------------------------------------|
A|-----------------------------------------------------------------|
E|-----------------------------------------------------------------|
   *   *   *   *   *   *   *   *   *   *   *   *   *   *   *   *

  2:49

e|---------0-----3p0---------0-0-0---------0---0-3-0---------0-----|
B|---------1---------0---1h3---1-1-1-------1---------0---1h3---1-1-|
G|---------0-------------------0-0-2---2---2-------------------0-0-|
D|-----2---2-------------------2-2-3-------3-----------3-------3-3-|
A|-3-------3---3-------3-------3-3---------------------------------|
E|-----------------------------------------------------------------|
   *   *   *   *   *   *   *   *   *   *   *   *   *   *   *   *


   pick the 8
e|-----------------------------------------------------------------|
B|/8-----------------------8/10~~~\5-----------5/8\5~~~~~~\3-------|
G|-----------------------------------------------------------------|
D|-----------------------------------------------------------------|
A|-----------------------------------------------------------------|
E|-----------------------------------------------------------------|
   *   *   *   *   *   *   *   *   *   *   *   *   *   *   *   *

  2:56

e|---------0-------------------------------------------------------|
B|---------1---------------1-----------1-------1-------------------|
G|---------0-----0-----0---0---0---0h2---------2---0h2-2---0h2-0---|
D|-----2---2-----2-0h2-----2---0---3---3-------3---3---3---3---0---|
A|-3-------3---3---3-------3---------------------------------------|
E|-----------------------------------------------------------------|
   *   *   *   *   *   *   *   *   *   *   *   *   *   *   *   *



e|-----------------------------------------------------------------|
B|-3~/~8-------------------8/10~~~\5-----------5/8\5---------------|
G|---------------------------------------------------------5~/~7~~~|
D|-----------------------------------------------------------------|
A|-----------------------------------------------------------------|
E|-----------------------------------------------------------------|
   *   *   *   *   *   *   *   *   *   *   *   *   *   *   *   *

  3:02

e|-----------------------------------------------------------------|
B|-------------------------------------1-----------1h3p1-----------|
G|-----0-------0-------0-------0---0h2---------------------0h2-0---|
D|-0h2---------2---0h2-----0h2-------------------------------------|
A|-3-------3---3---3-------3---------------------------------------|
E|-----------------------------------------------------------------|
   *   *   *   *   *   *   *   *   *   *   *   *   *   *   *   *



e|-----------------------------------------------------------------|
B|-------------------------------------------------1~~~~~~~/~~~~~~~|
G|~~~~~~~~~\~~~~~~-------------------------------------------------|
D|-----------------5/7\~~~~~~~~~~~~5-------------------------------|
A|-----------------------------------------------------------------|
E|-----------------------------------------------------------------|
   *   *   *   *   *   *   *   *   *   *   *   *   *   *   *   *


Verse 3:


  3:09                                     
           Tell me what were you thinkin'           
e|---------0---------------0---------------0-----3p0---------------|
B|---------1---------------1---------------1---------1-1---1---1-1-|
G|---------0---------------0---0---2-------2-----------0---2---0-0-|
D|-----------------------------------------3---3-------3---3---3-3-|
A|-3-----------3-------3-------------------------------------------|
E|-----------------------------------------------------------------|
   *   *   *   *   *   *   *   *   *   *   *   *   *   *   *   *



e|-----------------------------------------------------------------|
B|/8---------------------------------------------------------------|
G|-----------------------------------------------------------------|
D|-----------------------------------------------------------------|
A|-----------------------------------------------------------------|
E|-----------------------------------------------------------------|
   *   *   *   *   *   *   *   *   *   *   *   *   *   *   *   *

  3:16
  Treat some       body        so
e|---------0---------------0---------------0-----3p0---------------|
B|---------1-----1---------1---------------1---------1-1---1---1-1-|
G|---------0-----0---------0---0---2-------2-----------0---2---0-0-|
D|-----------------2-----------------------3---3-------3---3---3-3-|
A|-3-----------3-------3-------------------------------------------|
E|-----------------------------------------------------------------|
   *   *   *   *   *   *   *   *   *   *   *   *   *   *   *   *



e|-----------------------------------------------------------------|
B|-----------------------------------------------------------------|
G|-----------------------------------------------------------------|
D|-----------------------------------------------------------------|
A|-----------------------------------------------------------------|
E|-----------------------------------------------------------------|
   *   *   *   *   *   *   *   *   *   *   *   *   *   *   *   *

  3:23                                     
                   The care he took                               The
e|---------0-------------------------------0-----3p0-------0-------|
B|---------1-----1---------1-----------1---1---------1-1---1---1-1-|
G|---------0-----0---------0---0---2---2---2-----------0---2---0-0-|
D|-----------------2-------------------3---3---3-------3---3---3-3-|
A|-3-----------3-------3-------------------------------------------|
E|-----------------------------------------------------------------|
   *   *   *   *   *   *   *   *   *   *   *   *   *   *   *   *



e|-----------------------------------------------------------------|
B|-----------------------------------------------------------------|
G|-----------------------------------------------------------------|
D|-5/7\~~~~~~~~~~~~~~~~5-------------------------------------------|
A|-----------------------------------------------------------------|
E|-----------------------------------------------------------------|
   *   *   *   *   *   *   *   *   *   *   *   *   *   *   *   *

  3:29
  lengths to       which he'd go
e|---------0-----------------------------------------0-------------|
B|---------1-----1---------1---------------1-----1h3-------3p0-1-1-|
G|---------0-----0---------0---0---2---2---2-------------------0-0-|
D|-----------------2-----------------------3---3-------3-------3-3-|
A|-3-----------3-------3-------------------------------------------|
E|-----------------------------------------------------------------|
   *   *   *   *   *   *   *   *   *   *   *   *   *   *   *   *



e|-----------------------------------------------------------------|
B|-----------------------------------------------------------------|
G|-7~~~~~~~\~~~~~~~5-----------7~~~\~~~5-------7~~~\~~~5-------7~\~|
D|-----------------------------------------------------------------|
A|-----------------------------------------------------------------|
E|-----------------------------------------------------------------|
   *   *   *   *   *   *   *   *   *   *   *   *   *   *   *   *

  3:36
                   Coals are hot               to walk across with    
e|---------0---------------0---------------0---------------0---0---|
B|---------1-----1---------1---------------1---------------1---1---|
G|---------0-----0---------0-----------2---2---------------2---0---|
D|-----2-----------2-----------0---2-------3---------------3---3---|
A|-3-----------3-------3-------------------------------------------|
E|-----------------------------------------------------------------|
   *   *   *   *   *   *   *   *   *   *   *   *   *   *   *   *



e|-----------------------------------------------------------------|
B|-----------------------------------------------------------------|
G|~5~/~9-----------------------5/7\5-----------5/7\5/7\5~/~7~\~5~/~|
D|-----------------------------------------------------------------|
A|-----------------------------------------------------------------|
E|-----------------------------------------------------------------|
   *   *   *   *   *   *   *   *   *   *   *   *   *   *   *   *

  3:43
                   out your shoes
e|---------0-------------------------------0-----0-----------------|
B|---------1-----1---------1---------------1---------0-----1h3-1-1-|
G|---------0-----0---------0---------------2-------------------2-0-|
D|-----------------2-----------0---2-------3---3-------3-------3-3-|
A|-3-----------3-------3-------------------------------------------|
E|-----------------------------------------------------------------|
   *   *   *   *   *   *   *   *   *   *   *   *   *   *   *   *



e|-----------------------------------------------------------------|
B|---------------------------------10~~\~~~8---5~/~8~~~/~~~5~~~/~~~|
G|~9---------------------------------------------------------------|
D|-----------------------------------------------------------------|
A|-----------------------------------------------------------------|
E|-----------------------------------------------------------------|
   *   *   *   *   *   *   *   *   *   *   *   *   *   *   *   *

  3:50
                   In the end                     know that you've got 
e|---------0---------------0---------------0-----------------------|
B|---------1-----1---------1---------------1---------------1---1---|
G|---------0-----0---------0-----------2---2---2-----------2---0---|
D|-----2-----------2-----------0---2-------3---------------3---3---|
A|-3-----------3-------3-------------------------------------------|
E|-----------------------------------------------------------------|
   *   *   *   *   *   *   *   *   *   *   *   *   *   *   *   *



e|-----------------------------------------------------------------|
B|~8---------------------------------------------------10~~~~~~\~~~|
G|-----------------------------------------------------------------|
D|-----------------------------------------------------------------|
A|-----------------------------------------------------------------|
E|-----------------------------------------------------------------|
   *   *   *   *   *   *   *   *   *   *   *   *   *   *   *   *
 
  3:56
                   nothin' to lose
e|---------0---------------0---------------0-----3p0-------0-------|
B|---------1-----1---------1---------------1---------1-1---1-------|
G|---------0-----0---------0-----------2---2-----------2---2-------|
D|-----2-----------2-----------0---2-------3---3-------3---3-------|
A|-3-----------3-------3-------------------------------------------|
E|-----------------------------------------------------------------|
   *   *   *   *   *   *   *   *   *   *   *   *   *   *   *   



e|-----------------------------------------------------------------|
B|~5---------------------------------------------------------------|
G|-----------------5/7\5-------------------------------------------|
D|-------------------------5/7\5-----------7~~~~~~~\~~~~~~~5-------|
A|-----------------------------------------------------------------|
E|-----------------------------------------------------------------|
   *   *   *   *   *   *   *   *   *   *   *   *   *   *   *   

  4:02
                                                       Nothin' to lose
e|-----0-----------------------0-------0-------------------------------|
B|-----0-----------------------0-------1-------------------------------|
G|-2/4-4---4---4---4---4---4---4---\---2-------------------------------|
D|-3/5-5---5---5---5---5---5---5-------3-------------------------------|
A|---------------------------------------------------------------------|
E|---------------------------------------------------------------------|
   *   *   *   *   *   *   *   *   *   *   *   *   *   *   *   *   *  



e|---------------------------------------------------------------------|
B|-----------------------------------------------------1~~~~~~~/~~~~~~~|
G|---------------------------------------------------------------------|
D|-----5~~~/~~~7~~~~~~~~~~~----9/10~~\~5-------------------------------|
A|---------------------------------------------------------------------|
E|---------------------------------------------------------------------|
   *   *   *   *   *   *   *   *   *   *   *   *   *   *   *   *   *


Bridge:


  4:10

e|---------------3p0-----------0---------------------0-------------|
B|---------1---------1-----1-1-1-----------1-----1h3-------3p1-1-1-|
G|---------0---------------0-0-0-----------2-------------------0-0-|
D|-------------------------2-2-0---3-------3-----------3-------3-3-|
A|-3-----------3-------3---3-3-3-----------------------------------|
E|-----------------------------------------------------------------|
   *   *   *   *   *   *   *   *   *   *   *   *   *   *   *   *



e|-----------------------------------------------------------------|
B|/8-----------------------8/10~~~\5-------------------------------|
G|-------------------------------------------------7~~~\~~~5-------|
D|-----------------------------------------------------------------|
A|-----------------------------------------------------------------|
E|-----------------------------------------------------------------|
   *   *   *   *   *   *   *   *   *   *   *   *   *   *   *   *

  4:16

e|---------0---------0-----3p0-0-0---------0-----3p0---------0-----|
B|---------1-----1h3-----------1-1-1-------1---------0---1h3---1-1-|
G|---------0-------------------0-0-2---2---2-------------------0-0-|
D|-----2-----------------------2-2-3-------3---3-------3-------3-3-|
A|-3-----------3-------3-------3-3---------------------------------|
E|-----------------------------------------------------------------|
   *   *   *   *   *   *   *   *   *   *   *   *   *   *   *   *



e|-----------------------------------------------------------------|
B|-3/8---------------------8/10~~~\5-------------------------------|
G|-------------------------------------------------5/7\5-----------|
D|---------------------------------------------------------5/7~~~~~|
A|-----------------------------------------------------------------|
E|-----------------------------------------------------------------|
   *   *   *   *   *   *   *   *   *   *   *   *   *   *   *   *

  4:23

e|---------0---------0---------0-0----------0----3p0---------0-----|
B|---------1-----1h3-------3p1-1-1-1--------1--------1---1h3---1---|
G|-----0---0-------------------0-0-2---2----2----------------------|
D|-----2---------------2-------2-2-3--------3--3-------3-----------|
A|-3-----------3---3-------3---3-3---------------------------------|
E|-----------------------------------------------------------------|
   *   *   *   *   *   *   *   *   *   *   *   *   *   *   *   *



e|-----------------------------------------------------------------|
B|-----------------------------------------------------------------|
G|-----------------------------------------------------------------|
D|\5-----------------------7~~~\~~~5-----------------------7~~~\~~~|
A|-----------------------------------------------------------------|
E|-----------------------------------------------------------------|
   *   *   *   *   *   *   *   *   *   *   *   *   *   *   *   *


Outro:


  4:29

e|-------------------------------------0---------------0-------0---|
B|-----1---------------1-------1---1---1-----------1---1h3-----1---|
G|-0---0-----------0---0---0---0---0h2-------------0h2-----2-------|
D|-0h2-------------0h2-----0h2-------------------------------------|
A|-----------------------------------------------------------------|
E|-----------------------------------------------------------------|
   *   *   *   *   *   *   *   *   *   *   *   *   *   *   *   *


e|-----------------------------------------------------------------|
B|-----------------------------------------------------------------|
G|-----------------------------------------------------------------|
D|\5---------------------------------------------------------------|
A|-----------------------------------------------------------------|
E|-----------------------------------------------------------------|
   *   *   *   *   *   *   *   *   *   *   *   *   *   *   *   *

  4:34

e|-------------------------------------0---0-----------0---0---0---|
B|-----1---------------1-------1---1---1---1h3-1---1---1---1h3-----|
G|-0---0-----------0---0---0---0---0h2-------------0h2---------0---|
D|-0h2-------------0h2-----0h2-------------------------------------|
A|-----------------------------------------------------------------|
E|-----------------------------------------------------------------|
   *   *   *   *   *   *   *   *   *   *   *   *   *   *   *   *

  4:43

e|---------0-------------------------------------------------------|
B|-------1---------------------------------------------------------|
G|-----0-----------------------------------------------------------|
D|---2-------------------------------------------------------------|
A|-3---------------------------------------------------------------|
E|-----------------------------------------------------------------|

            
            
Suggest correction
Creating personal tab
Creating personal tab
You can edit any tab online and save it as your Personal.

You can edit, replace or remove any tab part or add personal notes – all changes will be seen only by you.

Personal tabs can be accessed anytime from any device, even offline.
Learn more »
comments
print report bad tab
6 comments total. Showing first comments.
+1 reply
josiahbohnsack 73 Apr 15, 2013 08:59 PM

Very accurate, but I am a little skeptical of the "another way" part.

0 reply
coman91 1,552 Apr 16, 2013 06:37 AM

Understandable, it's very quiet. The one part that threw me off was the 4\2 slide. It's a delayed slide. Try downloading some free music analyzing software. I use one program to slow down the songs so I can transcribe better. Just google "music recording software" and you should be able to find something. Search "download.cnet.com" too. That's a pretty reliable source for free software, in my experience anyways.

Thank you for your feedback!

+1 reply
braindamage828 10 May 14, 2014 09:24 AM

This sounds fine standard tuning with a capo on the 6th fret. The slide guitar isn't mentioned so I'll start it off for you. The slide eventually goes down to the 5th fret, so you have to take the capo off if you want to play the whole thing. But if you want to just play the basic stuff you can keep it on. Basically its just the B and G strings being used. Here is the first part.

e|-----------------------------------------------------------------|
B|-/14--14/16\11----/14--14/16\11--11/12\11--/7--------------------|
G|-----------------------------------------------------------------|
D|-----------------------------------------------------------------|
A|-----------------------------------------------------------------|
E|-----------------------------------------------------------------|
tell me where you're going...
e|-----------------------------------------------------------------|
B|-----------------------------------------------------------------|
G|---5/7\5---------------------------------------------------------|
what is going wrong....
e|-----------------------------------------------------------------|
B|----5/7--5/7-----------------------------------------------------|
G|-------------7\5-------------------------------------------------|

The rest of the parts follow those scales. Listen to the song to get a feel for the timing. My laptop is about to die or I'd write more for you, but I think you can get the gist of it. Let me know what you think.

guest
You may want to rate the tab now too:
select rating
Wanna post a correction for this tab? Suggest correction