Oops, an error
Loading. Please wait.

The Moan tab

version 2
version 2

Whole song

2,203 views 3 this week
no commentswrite comment
1 2 3 4 5
1 last vote to show rating
add to favorites
×
Save as Personal and add changes to this tab that will be seen only by you. Learn more ›
×
You can save this tab as Personal to edit and correct it or add notes. All changes will be seen only by you. Learn more »
launch autoscroll
font size
0
reset
how to read this tab
guitar tuner
edit
Autoscroll
slow
fast
+/-
esc
set tempo
stop
Author
Difficulty
                                  ~~~~~~~~~~~~~~~~~~~~~~~~~~~~~~~~~~~~~~~
                                                 The Moan
                                               The Black Keys
                                                 The Moan
                                  ~~~~~~~~~~~~~~~~~~~~~~~~~~~~~~~~~~~~~~~~

Tabbed by: Connor O.
Tuning: Standard


Verse Two is played without a bassline

Comment or message any ideas or corrections. Please rate my tab. If you've got
problems with the tab, I'd encourage you to contact me with those problems so I
can fix the tab or provide advice for playing. Don't just give me a poor rating
and not give me any feedback. The idea is for us all to work together to create
a perfect finished product. This tab just represents the best I can do. It's 
definitely up for peer review. 



Key:
where # represents a fret number

#h# - hammer
#p# - pull
/ \ - slides, up and down respectively.
#b# - bend from normal note up to achieve bended note.
#r# - release bend from bended note to normal note.
pb# - on fret #, bend up a whole step then attack and release
 x  - mute
 *  - time keeper. if you played a steady
      baseline, you'd see the notes are 
      displayed in the tab in the correct 
      chronological order. 
 &  - symbol substitution



Intro:


  0:00

e|------------------------------0------------|
B|--------------------------------3p0--------|
G|-----------------0------------------2p0----|
D|--0h2---2/4-0h2-----------2-------------2--|
A|---------------------2---------------------|
E|-----------------------3b---0--------------|


  0:07
  
e|----------------------------------|
B|--------------------3-------------|
G|--------------------------2-----0-|
D|--2-----0-----2-------------------| 
A|----------2-----------------------|
E|----------------------------------|
    *   *   *   *   *   *   *   *   


  0:09

e|------------------------------0---|
B|--------------------------0h2-----|
G|----------------------0h1---------|
D|--2-----0-----2-------------------| 
A|----------2-----------------------|
E|----------------------------------|
    *   *   *   *   *   *   *   *   


  0:12
  (drums and bass line kick in)
e|----------------------------------|
B|--------------------3-------------|
G|--------------------------2-----0-|
D|--2-----0-----2-------------------| X2
A|----------2-----------------------|
E|--0---0---0---0---0---0---0---0---|


  0:17
    o boy       I a lone    w   the 
e|----------------------------------|
B|----------------------------------|
G|----------------------------------|
D|--2-----0-----2-------2-----------| 
A|----------2---------------0---2---|
E|--0---0---0---0---0---0---0---0---|


  0:20
    moan
e|----------------------------------|
B|--------------------3-------------|
G|--------------------------2-----0-|
D|--2-----0-----2-------------------| 
A|----------2-----------------------|
E|--0---0---0---0---0---0---0---0---|


  0:23

e|--------------------------------0-|
B|----------------------------0h2---|
G|----------------------2-0h1-------|
D|--2-----0-----2-------------------|
A|----------2-----------------------|
E|--0---0---0---0---0---0---0---0---|


  0:26

e|----------------------------------|
B|--------------------3-------------|
G|--------------------------2-----0-|
D|--2-----0-----2-------------------| 
A|----------2-----------------------|
E|--0---0---0---0---0---0---0---0---|


  0:28
  Oh boy I'm alone with the moan
e|----------------------------------|
B|----------------------------------|
G|----------------------------------|
D|--2-----0-----2-------2-----------| 
A|----------2---------------0---2---|
E|--0---0---0---0---0---0---0---0---|


  0:30

e|----------------------------------|
B|--------------------3-------------|
G|--------------------------2-----0-|
D|--2-----0-----2-------------------| X3
A|----------2-----------------------| 
E|--0---0---0---0---0---0---0---0---|


  0:38
  Oh boy I'm alone with the moan
e|----------------------------------|
B|----------------------------------|
G|----------------------------------|
D|--2-----0-----2-------2-----------| 
A|----------2---------------0---2---|
E|--0---0---0---0---0---0---0---0---|




e|--------------------------------0-|
B|----------------------------0h2---|
G|----------------------2-0h1-------|
D|--2-----0-----2-------------------|
A|----------2-----------------------|
E|--0---0---0---0---0---0---0---0---|


   

e|----------------------------------|
B|--------------------3-------------|
G|--------------------------2-----0-|
D|--2-----0-----2-------------------| X2
A|----------2-----------------------|
E|--0---0---0---0---0---0---0---0---|


  0:48
    Yeah,           d   m       wrong  
e|----------------------------------|
B|----------------------------------|
G|----------------------------------|
D|--2-----0-----2---0h2-0-------2---| 
A|----------2-------------0h2-------|
E|--0---0---0---0---0---0---0---0---|




e|----------------------------------|
B|--------------------3-------------|
G|--------------------------2-----0-|
D|--2-----0-----2-------------------| 
A|----------2-----------------------|
E|--0---0---0---0---0---0---0---0---|




e|--------------------------------0-|
B|----------------------------0h2---|
G|----------------------2-0h1-------|
D|--2-----0-----2-------------------|
A|----------2-----------------------|
E|--0---0---0---0---0---0---0---0---|




e|----------------------------------|
B|--------------------3-------------|
G|--------------------------2-----0-|
D|--2-----0-----2-------------------| 
A|----------2-----------------------|
E|--0---0---0---0---0---0---0---0---|


  0:57
        some  body  ca -l o     m
e|----------------------------------|
B|----------------------------------|
G|--------------0---------2-----0---|
D|------2-----0-----2---------------| 
A|----------------------2-----------|
E|--0---0---0---0---0---0---0---0---|




e|----------------------------------|
B|--------------------3-------------|
G|--------------------------2-----0-|
D|--2-----0-----2-------------------| 
A|----------2-----------------------|
E|--0---0---0---0---0---0---0---0---|


  1:03
  Somebody's callin' out my
e|----------------------------------|
B|----------------------------------|
G|--------------0---------2-----0---|
D|------2-----0-----2---------------| 
A|----------------------2-----------|
E|--0---0---0---0---0---0---0---0---|




e|----------------------------------|
B|--------------------3-------------|
G|--------------------------2-----0-|
D|--2-----0-----2-------------------| 
A|----------2-----------------------|
E|--0---0---0---0---0---0---0---0---|

 
  1:08
  Somebody's callin' out my
e|----------------------------------|
B|----------------------------------|
G|--------------0---------2-----0---|
D|------2-----0-----2---------------| 
A|----------------------2-----------|
E|--0---0---0---0---0---0---0---0---|


  1:13
    k o         callin'
e|----------------------------------|
B|--------------------3-------------|
G|--------------------------2-----0-| x2
D|--2-----0-----2-------------------| 
A|----------2-----------------------|
E|--0---0---0---0---0---0---0---0---|


  1:17
    Call    on  me
e|----------------------------------|
B|--------------------3-------------|
G|--------------------------2-----0-| x2
D|--2-----0-----2-------------------| 
A|----------2-----------------------|
E|--0---0---0---0---0---0---0---0---|



Bridge:


  1:22

e|--0-----0-0---0-----0-0---0---0---|
B|--3-----3-3---3-----3-3---3---3---|
G|--4-----4-4---4-----4-4---4---4---|
D|--0-----0-0---0-----0-0---0---0---|
A|----------------------------------|
E|----------------------------------|
    *   *   *   *   *   *   *   *



e|--0-----0-0---0-----0-0---0---0---|
B|--2-----2-2---2-----2-2---2---2---|
G|--3-----3-3---3-----3-3---3---3---|
D|--0-----0-0---0-----0-0---0---0---|
A|----------------------------------|
E|----------------------------------|
    *   *   *   *   *   *   *   *



e|--0-----0-0---0-----0-0---0---0---|
B|--1-----1-1---1-----1-1---1---1---|
G|--2-----2-2---2-----2-2---2---2---|
D|--0-----0-0---0-----0-0---0---0---|
A|----------------------------------|
E|----------------------------------|
    *   *   *   *   *   *   *   *

  1:29

e|----------------------------------|
B|--2b4~~~~~~~~~~~~~~~~~~~~~r2~p0---|
G|----------------------------------|
D|----------------------------------|
A|----------------------------------|
E|----------------------------------|
    *   *   *   *   *   *   *   *


Solo:


  1:31

e|----------------------------------|
B|----------------------------------|
G|----------------------------------|
D|--2-----0-----2-------------------| 
A|----------2-------------------0h2-|
E|----------------------0---3-------|
    *   *   *   *   *   *   *   *

  1:34
    !!!!! - fast only half a beat
e|------------------------------0---|
B|----------------------------------|
G|----------------------------------|
D|--0h2p0-0-----0h2---0-------------|
A|----------2-----------2-----------|
E|--------------------------3b--0---|
    *   *   *   *   *   *   *   *

  1:37
                      !!! - fast, only half a beat 
e|----------------------------------|
B|----------------------------------|
G|----------------------------------|
D|--------0-----------0h2p0---------|
A|--------------0h2---------2p0-----|
E|--0-------3-------------------3b--|
    *   *   *   *   *   *   *   *

  1:39

e|--0-------------------------------|
B|--0-------------------------------|
G|----------------------------------| x6
D|--------0-----------0h2p0---------| 
A|--------------0h2---------2p0-----|
E|--0-------3-------------------3b--|
    *   *   *   *   *   *   *   *    

  1:53

e|--0-------------------------------|
B|--0-------------------------------|
G|--------------------&-0h2-&-------| &1 = 2b4
D|--------0---------------------2p0-| &2 = 0h2p0
A|--------------0h2-----------------|
E|--0-------3-----------------------|
    *   *   *   *   *   *   *   *  

  1:56

e|--0-------------------------------|
B|--0-------------------------------|
G|----------------------------------| x2
D|--------0-----------0h2p0---------| 
A|--------------0h2---------2p0-----|
E|--0-------3-------------------3b--|
    *   *   *   *   *   *   *   *    

  2:01

e|--0-----------------x-------------|
B|--0-----------------x-------------|
G|--------x-0---------x-2b4r2p0-----| 
D|--------x-0-------------------2p0-| 
A|--------x-0---2-------------------|
E|--0-------------------------------|
    *   *   *   *   *   *   *   *  

  2:03

e|--0-------------------------------|
B|--0-------------------------------|
G|--------------------2b4---pb2-0---| & = 2p0, fast, 1/2 beat 
D|--------0-----------------------&-| 
A|--------------0h2-----------------|
E|--0-------3-----------------------|
    *   *   *   *   *   *   *   * 

  2:05

e|--0-------------------------------|
B|--0-------------------------------|
G|----------------------------------| 
D|--------0-----------0h2p0---------| 
A|--------------0h2---------2p0-----|
E|--0-------3-------------------3b--|
    *   *   *   *   *   *   *   * 

  2:07

e|--0-------------------------------|
B|--0-------------------------------|
G|------------------2b4-pb2-0-------| 
D|--------0-------------------&-----| & = 2p0, fast, 1/2 beat 
A|--------------0h2-----------------|
E|--0-------3-----------------------|
    *   *   *   *   *   *   *   * 

  2:10

e|--0-------------------------------|
B|--0-------------------------------|
G|----------------------------------| 
D|--------0-----------0h2p0---------| 
A|--------------0h2---------2p0-----|
E|--0-------3-------------------3b--|
    *   *   *   *   *   *   *   *  

  2:12

e|--0-------------------------------|
B|--0-------------------------------|
G|--------------------2b4-pb2-&-0---| 
D|--------0-------------------------| 
A|--------------0h2-----------------|
E|--0-------3---------------------0-|
    *   *   *   *   *   *   *   *  

  2:15

e|--------0-------------------------|
B|--------0-------------------------|
G|----------------------------------| 
D|--------------------0h2p0---------| 
A|--------------0h2---------2p0-----|
E|----------3-------------------3b--|
    *   *   *   *   *   *   *   * 


e|--0-------------------------------|
B|--0-------------------------------|
G|----------------------------------| 
D|--------0-----------0h2p0---------| 
A|--------------0h2---------2-------|
E|--0-------3-----------------------|
    *   *   *   *   *   *   *   * 



Repeat Bridge:


  2:19

Do the 2b4 (see 1:29) bend for two measures instead of just one



Verse 2:


  2:30

e|--------0-----------------0-----0-|
B|--------0-----------3-----0-----0-|
G|--------------------------2-----0-|
D|--2-----------2-------------------| X2
A|----------2-----------0-----------|
E|--0---0---0---0---0---------------|
                               


e|--0-----0-0---0-----------0-----0-|
B|--0-----0-0---0-----3-----0-----0-|
G|--------------------------2-----0-|
D|--2-----------2-------------------| 
A|----------2-----------------------|
E|----------------------------------|
    *   *   *   *   *   *   *   *

  2:37

e|--0-----0-0---0-------------------|
B|--0-----0-0---0-------1/3-3-------|
G|----------------------2/4-4-------| 
D|--2-----------2-------------------| 
A|----------2-----------------------|
E|----------------------------------|
    *   *   *   *   *   *   *   *

  2:39
    o boy       I a lone    w   the 
e|--------0-------------------------|
B|--------0-------------0-----------|
G|----------------------0-----------|
D|--2-----------2-------2-----------| 
A|----------2---------------0---2---|
E|----------------------------------|
    *   *   *   *   *   *   *   *

  
    moan
e|--0-----0-0---0-----------0-----0-|
B|--0-----0-0---0-----3-----0-----0-|
G|--------------------------2-----0-|
D|--2-----------2-------------------| 
A|----------2-----------------------|
E|----------------------------------|
    *   *   *   *   *   *   *   *

 

e|--0-----0-0---0-----------------0-|
B|--0-----0-0---0-------------0h2---|
G|----------------------2-0h1-------|
D|--2-----------2-------------------|
A|----------2-----------------------|
E|----------------------------------|
    *   *   *   *   *   *   *   *

  

e|--0-----0-0---0-----------0-----0-|
B|--0-----0-0---0-----3-----0-----0-|
G|--------------------------2-----0-|
D|--2-----------2-------------------| 
A|----------2-----------------------|
E|----------------------------------|
    *   *   *   *   *   *   *   *

  2:49
  Oh boy I'm alone with the moan
e|--------0-------------0-------0---|
B|--------0-------------0-------0---|
G|----------------------------------|
D|--2-----------2-------2-----------| 
A|----------2---------------0---2---|
E|----------------------------------|
    *   *   *   *   *   *   *   *

  

e|--0-----0-0---0-----------0-----0-|
B|--0-----0-0---0-----3-----0-----0-|
G|--------------------------2-----0-| x3
D|--2-----------2-------------------| 
A|----------2-----------------------|
E|----------------------------------|
    *   *   *   *   *   *   *   *


  2:58
  Oh boy I'm alone with the moan
e|--------0-------------0-------0---|
B|--------0-------------0-------0---|
G|----------------------------------|
D|--2-----------2-------2-----------| 
A|----------2---------------0---2---|
E|----------------------------------|
    *   *   *   *   *   *   *   *

  

e|--0-----0-0---0-----------0-----0-|
B|--0-----0-0---0-----3-----0-----0-|
G|--------------------------2-----0-| x3
D|--2-----------2-------------------| 
A|----------2-----------------------|
E|----------------------------------|
    *   *   *   *   *   *   *   *

  3:07
    Keep on callin'
e|--------0-----------0-0-------0---|
B|--------0-----------0-0-------0---|
G|----------------------------------|
D|--2-----------2-------2-----------| 
A|----------2---------------0---2---|
E|----------------------------------|
    *   *   *   *   *   *   *   *

  

e|--0-----0-0---0-----------0-----0-|
B|--0-----0-0---0-----3-----0-----0-|
G|--------------------------2-----0-| x2
D|--2-----------2-------------------| 
A|----------2-----------------------|
E|----------------------------------|
    *   *   *   *   *   *   *   *



e|--0-----0-0---0-----------0-------|
B|--0-----0-0---0-----3-----0-------|
G|--------------------------2-------| 
D|--2-----------2-------------------| 
A|----------2-----------------------|
E|----------------------------------|
    *   *   *   *   *   *   *   *


Repeat Bridge:


  3:16



Outro:


  3:31                   3:41

e|----------------------------|
B|----------------------------|
G|--1---------------------1---|
D|--2---------------------2---| 
A|--2---------------------2---| END
E|--0---------------------0---|

            
            
Suggest correction
Creating personal tab
Creating personal tab
You can edit any tab online and save it as your Personal.

You can edit, replace or remove any tab part or add personal notes – all changes will be seen only by you.

Personal tabs can be accessed anytime from any device, even offline.
Learn more »
Give kudos to tab author, rate the tab!
1 2 3 4 5
comments
print report bad tab
guest
You may want to rate the tab now too:
select rating
Wanna post a correction for this tab? Suggest correction