Oops, an error
Loading. Please wait.

The Only One chords

version 1
version 1

Whole song

Interactive

53,334 views 117 this week
3 commentsread comments
1 2 3 4 5
x 11
add to favorites
×
Save as Personal and add changes to this tab that will be seen only by you. Learn more ›
×
You can save this tab as Personal to edit and correct it or add notes. All changes will be seen only by you. Learn more »
launch autoscroll
font size
0
reset
transpose
0
reset
display chords
guitar tuner
edit
Autoscroll
slow
fast
+/-
esc
set tempo
stop
Author
Strumming
There is no strumming pattern for this song yet. and get +5 IQ
-------------------------------------------------------------------------------
                             The Only One - The Black Keys
-------------------------------------------------------------------------------
Tabbed by: deVries.Erik
Email: devries.erik@yahoo.com

Tuning: Standard EADGBE

E: X 7 9 9 9 7
F#m: X 9 11 11 10 9

[Intro]
F#m
Can't explain 
E
Nor can I contain
F#m 
Control
E 
You have on my soul 

[Verse 1]
F#m
It's all I do 
E
Is baby dream of you 
F#m
I'm falling down 
E
When you're around 

[Verse 2]
F#m
You're the only one 
E
You're the only one 
I'm so wrapped up in your gaze 
Hoping this is just a phase 
But when all is said and done 
I know you are still the one 
You're the only one 
You're the only one 
Cupids bow has stung 
Now you're the only one 

[Verse 3]
Mystery 
Is what this is to me 
I'm Giving up 
I'm having no luck 

[Outro]
Like a ghost 
The one that I love most 
She disappears
When I get near 

You're the only one 
You're the only one 
I'm so wrapped up in your gaze 
Hoping this is just a phase 
But when all is said and done 
I know you are still the one 
You're the only one 
You're the only one 
Cupids bow has stung 
Now you're the only one

[Riff 1]
e|---------------------------------------------------------------------------|
B|---------------------------------------------------------------------------|
G|---11--11--11--9------9-----------11--11--11--9------9---------------------|
D|------------------11-----------------------------11------------------------|
A|---------------------------------------------------------------------------|
E|---------------------------------------------------------------------------|

e|---------------------------------------------------------------------------|
B|---------------------------------------------------------------------------|
G|---6--6--6-------------6--6--6---------------------------------------------|
D|------------9--6--9-------------9--6--9------------------------------------|
A|---------------------------------------------------------------------------|
E|---------------------------------------------------------------------------|

            
            
Suggest correction
Creating personal tab
Creating personal tab
You can edit any tab online and save it as your Personal.

You can edit, replace or remove any tab part or add personal notes – all changes will be seen only by you.

Personal tabs can be accessed anytime from any device, even offline.
Learn more »
comments
print report bad tab
3 comments total.
0 reply
TcSMusicman 10 Feb 03, 2011 05:02 PM

the riff is pretty close, but it all needs to be shifted up a string, and changed a bit, so it should look like this

e|---------------------------------------------------------|
B|---------------------------------------------------------|
G|---6--6--6-6-------------6--6--6-------------------------|
D|--------------9--6--9--------------9--6------------------|
A|---------------------------------------------------------|
E|---------------------------------------------------------|

the first half of the riff is good though, it just needs to be moved up a string like i said.

0 reply
TcSMusicman 10 Feb 03, 2011 05:17 PM

or if you want a simplified way to play the second half, its how he originally tabbed the first half, but you add an extra 11 on the D string when you start and end with the 11 on the A instead of the 9 on D. its all the same notes. but if you listen to the song really well, it sounds like he plays the simpler way.

0 reply
Slothfrenzy 45 Apr 11, 2015 08:50 PM

Throw the capo on the 4 fret and use C and Dmin for an acoustic version if you want.

guest
You may want to rate the tab now too:
select rating
Wanna post a correction for this tab? Suggest correction