Oops, an error
Loading. Please wait.
We have an official Thickfreakness tab made by UG professional guitarists. Check out the tab »
×
25,111 views 3 this week
4 commentsread comments
1 2 3 4 5
x 13
add to favorites
×
Save as Personal and add changes to this tab that will be seen only by you. Learn more ›
×
You can save this tab as Personal to edit and correct it or add notes. All changes will be seen only by you. Learn more »
launch autoscroll
font size
0
reset
how to read this tab
guitar tuner
edit
Autoscroll
slow
fast
+/-
esc
set tempo
stop
Author
This is the first time I tab anything... it probably sucks ass, and it doesn't help that
I don't have a copy of the song to listen to. It sounds good to me... and if you don't,
I've with it. I think it's better than the crap I found.

Riff A

A.1

E  |---------------------------|
B  |---------------------------|
G  |---------------------------|
D  |5s7-5----------------------|
A  |------7-5-7-3-5-5s3-0------|
E  |----------------------3-5--|

A.2

E  |---------------------------------|
B  |---------------------------------|
G  |---------------------------------|
D  |5s7-5----------------------------|
A  |------7-5-7-3-5-3s5-3s5-5s3-0----|
E  |------------------------------3--|

A.3

E  |------------------------|
B  |------------------------|
G  |------------------------|
D  |5s7-5-------------------|
A  |------7-5-7-3-5-5s7s10--|
E  |------------------------|



Riff B

B.1

E  |----------------------|
B  |----------------------|
G  |----------------------|
D  |--7---7---7--7-----5--|
A  |--7---7---7--7-----5--|
E  |5---5---5------5-3----|

B.2

E  |------------------------|
B  |------------------------|
G  |------------------------|
D  |--7---7---7--7-5--------|
A  |--7---7---7------7-5----|
E  |5---5---5------------8--|

B.3

E  |------------------------|
B  |------------------------|
G  |------------------------|
D  |--7---7---7-*7-*-*---*--|
A  |--7---7---7-*7-*-*---*--|
E  |5---5---5---*-5*-*3-2*--|



Chorus

E  |---------------------------------------|
B  |--------------------------5s8-5--------|
G  |--5-7-5-----5-----------5-------7p5----|
D  |7---7-7-5h7---7-------7-------------7--|
A  |--------------------0------------------|
E  |----------------8-8--------------------|



Bridge

E  |--------------------------|
B  |--------------------------|
G  |9--7-----7--5--7s9-7s5----|
D  |9--7-----7--5----------7--|
A  |--------------------------|
E  |-----0-3------------------|



Under Solo

E  |-------------------|
B  |-------------------|
G  |-------------------|
D  |7xxx7x5xxx5x7xxxx--|
A  |7xxx7x5xxx5x7xxxx--|
E  |5xxx5x3xxx3x5xxxx--|



Bridge 2

E  |----------------|
B  |-------------7--|
G  |-------------7--|
D  |7p5----------7--|
A  |----7p5-3-0-----|
E  |----------------|



End Riff

E  |-----------------------------|
B  |-----------------------------|
G  |-----------------------------|
D  |5s7-5------------------------|
A  |------7-5-7-3-5-5s7-5-3------|
E  |------------------------3-5--|



Riff A
Riff B
Chorus
Riff B *
Chorus
Riff B **
Bridge
Riff B.1
Riff B.3 **
Riff A
Under Solo X 4
Bridge 2
Chorus
Riff B *
Chorus
Riff B **
Bridge
Riff B.1
Riff B.3 **
Riff A.1,2  X 2
Riff A.1
End Riff

* means first part in stars
** means both parts

            
            
Suggest correction
Creating personal tab
Creating personal tab
You can edit any tab online and save it as your Personal.

You can edit, replace or remove any tab part or add personal notes – all changes will be seen only by you.

Personal tabs can be accessed anytime from any device, even offline.
Learn more »
comments
print report bad tab
4 comments total. Showing first comments.
0 reply
simmo 10 Feb 14, 2005 07:00 PM

i think the tab for 'Riff A' should read

D |-5s7-5--------------------
A |-------7-6-5-3-5-5-3------
E |---------------------5-3-5

-1 reply
wrong_tabs_suck 60 Dec 31, 2005 09:39 AM

This tab is not correct, like, not even a little bit, and you shouldn't say the other tabs are crap if you're going to create an incorrect tab yourself. But that's just my opinion. Jerk.

Riff A:
D |-5h7-5----------------------
A |-------7-7s5-3-5-5p3--------
E |---------------------5-3-5-X

Riff B:
D |-5h7-5--------------------------
A |-------7-7s5-3-5-3h5-3h5-5p3----
E |-----------------------------5-3

Riff C:
D |-5h7-5-------------5~
A |-------7-7s5-3-5s7---
E |---------------------

Riff D (Only used in the outro to the song):
D |-5h7-5-------------------7---7
A |-------7-7s5-3-5-7-5-3---7---7
E |-----------------------3-5---5

Those are the riffs used in the intro and after the choruses, and in the outro. I know the rest of the song (i.e. the rest of the intro, verses, choruses, and both solo parts), if you're interested.

-A guitar-playing 15 year old who doesn't suck.

-1 reply
wrong_tabs_suck 60 Dec 31, 2005 09:40 AM

full of suck.

guest
You may want to rate the tab now too:
select rating
Wanna post a correction for this tab? Suggest correction