Oops, an error
Loading. Please wait.
We have an official Thickfreakness tab made by UG professional guitarists. Check out the tab »
×
18,825 views 72 this week
6 commentsread comments
1 2 3 4 5
x 16
add to favorites
×
Save as Personal and add changes to this tab that will be seen only by you. Learn more ›
×
You can save this tab as Personal to edit and correct it or add notes. All changes will be seen only by you. Learn more »
launch autoscroll
font size
0
reset
how to read this tab
guitar tuner
edit
Autoscroll
slow
fast
+/-
esc
set tempo
stop
Author
Difficulty
                                  ~~~~~~~~~~~~~~~~~~~~~~~~~~~~~~~~~~~~~~~~
                                               Thickfreakness
                                               The Black Keys
                                               Thickfreakness
                                  ~~~~~~~~~~~~~~~~~~~~~~~~~~~~~~~~~~~~~~~~

Tabbed by: Connor O.
Tuning: Standard



There isn't any variation in the 2nd verse or chorus so I didn't tab those parts
out. Pat and Dan play a the beat at a rate of 140 bpm.


Comment or message any ideas or corrections. Please rate my tab. If you've got
problems with the tab, I'd encourage you to contact me with those problems so I
can fix the tab or provide advice for playing. Don't just give me a poor rating
and not give me any feedback. The idea is for us all to work together to create
a perfect finished product. This tab just represents the best I can do. It's 
definitely up for peer review. PLEASE DON'T RATE THE TAB LESS THAN 5/5 UNLESS YOU
CAN TELL ME WHAT'S WRONG. 



Key:
where # represents a fret number

#h# - hammer
#p# - pull
/ \ - slides, up and down respectively.
#b# - bend from normal note up to achieve bended note.
#r# - release bend from bended note to normal note.
pb# - bend up whole step at indicated fret, then attack and release
 #b - a curl, a smaller than half-step bend.
=== - under boxes, represents the use of a guitar slide
 x  - mute
 &  - symbol substitution. for when symbols (like double digits)
      are too big to fit into the beat.



Intro:


  0:00

e|----------|
B|----------|
G|----------| Fast down to 3, slow up to 12
D|----------|
A|-12\3/12--|
E|----------|
   ====


Bridge:


  0:07
   & =5h7          & = 5p3p0
e|---------------------------------|
B|---------------------------------|
G|---------------------------------|
D|-&-5-----------------------------|
A|-----7-7\5-3-5---&---------------|
E|---------------------3-/-5-------|
   *   *   *   *   *   *   *   *   


   & = 5h7                 & = 5p3p0
e|---------------------------------|
B|---------------------------------|
G|---------------------------------|
D|-&-5-----------------------------|
A|-----7-7\5-3-5---3h5-3h5-&-------|
E|-----------------------------3---|
   *   *   *   *   *   *   *   *  

  0:14
   & =5h7          & = 5p3p0
e|---------------------------------|
B|---------------------------------|
G|---------------------------------|
D|-&-5-----------------------------|
A|-----7-7\5-3-5---&---------------|
E|---------------------3-/-5-------|
   *   *   *   *   *   *   *   *   


   & =5h7          
e|---------------------------------|
B|---------------------------------|
G|---------------------------------|
D|-&-5-------------5---------------|
A|-----7-7\5-3-5/7-----------------|
E|---------------------------------|
   *   *   *   *   *   *      


Verse 1:


  0:21

e|---------------------------------|
B|---------------------------------|
G|---2-----2-----2---2-------------|
D|---2-----2-----2---2-------------|
A|-0-----0-----0-------------------|
E|---------------------0---3---4---|
   *   *   *   *   *   *   *   *  



e|---------------------------------|
B|---------------------------------|
G|---2-----2-----2-----2p0---------|
D|---2-----2-----2---------2p0-----|
A|-0-----0-----0---------------3---|
E|---------------------------------|
   *   *   *   *   *   *   *   *   

  0:28

e|---------------------------------|
B|---------------------------------|
G|---2-----2-----2---2-------------|
D|---2-----2-----2---2-------------|
A|-0-----0-----0-------------------|
E|---------------------0---3---4---|
   *   *   *   *   *   *   *   *   



e|---------------------------------|
B|---------------------------------|
G|---2-----2-----2-----------------|
D|---2-----2-----2-----------------|
A|-0-----0-----0-------------------|
E|---------------------------------|
   *   *   *   *   *   *     


  0:34
    Well now here I am                           
e|---------------------------------|
B|-----1---1h3-----1---------1-----|
G|-2---------------------0h2---2---|
D|-0---0---0---0---0---0---0---0---|
A|---------------------------------|
E|---------------------------------|
   *   *   *   *   *   *   *   *


                   Well now here I am my darlin'
e|-----------------------3~p~0-------------|
B|-------------------1-----------pb3-1-----|
G|-----------------2-------------------2---|
D|---------0-----------0---0---0---0---0---|
A|-3---3-----------------------------------|
E|-----------------------------------------|
   *   *   *   *   *   *   *   *   *   *

  0:41
  
e|---------------------------------|
B|---------------------------------|
G|---2-----2-----2---2-------------|
D|---2-----2-----2---2-------------|
A|-0-----0-----0-------------------|
E|---------------------0---3---4---|
   *   *   *   *   *   *   *   *  



e|---------------------------------|
B|---------------------------------|
G|---2-----2-----2-----2p0---------|
D|---2-----2-----2---------2p0-----|
A|-0-----0-----0---------------3---|
E|---------------------------------|
   *   *   *   *   *   *   *   *   

  0:48

e|---------------------------------|
B|---------------------------------|
G|---2-----2-----2---2-------------|
D|---2-----2-----2---2-------------|
A|-0-----0-----0-------------------|
E|---------------------0---3---4---|
   *   *   *   *   *   *   *   *   



e|---------------------------------|
B|---------------------------------|
G|---2-----2-----2-----------------|
D|---2-----2-----2-----------------|
A|-0-----0-----0-------------------|
E|---------------------------------|
   *   *   *   *   *   *  


  0:54
  Well I'll care for you                            
e|---------------------------------|
B|-----1---1h3-----1---------1-----|
G|-2---------------------0h2---2---|
D|-0---0---0---0---0---0---0---0---|
A|---------------------------------|
E|---------------------------------|
   *   *   *   *   *   *   *   *


                   Girl that's all I wanna do
e|-----------------------3~p~0-------------|
B|-------------------1-----------5\3p1-----|
G|-----------------2-------------------2---|
D|---------0-----------0---0---0---0---0---|
A|-3---3-----------------------------------|
E|-----------------------------------------|
   *   *   *   *   *   *   *   *   *   *


  1:01

e|---------------------------------|
B|---------------------------------|
G|---2-----2-----2---2-------------|
D|---2-----2-----2---2-------------|
A|-0-----0-----0-------------------|
E|---------------------0---3---4---|
   *   *   *   *   *   *   *   *  



e|---------------------------------|
B|---------------------------------|
G|---2-----2-----2-----2p0---------|
D|---2-----2-----2---------2p0-----|
A|-0-----0-----0---------------3---|
E|---------------------------------|
   *   *   *   *   *   *   *   *   

  1:08

e|---------------------------------|
B|---------------------------------|
G|---2-----2-----2---2-------------|
D|---2-----2-----2---2-------------|
A|-0-----0-----0-------------------|
E|---------------------0---3---4---|
   *   *   *   *   *   *   *   *   



e|---------------------------------|
B|---------------------------------|
G|---2-----2-----2---2-------------|
D|---2-----2-----2---2-------------|
A|-0-----0-----0-------0-----------|
E|-------------------------3---2---|
   *   *   *   *   *   *   *   *  


Chorus:


  1:15
   Hold        me        
e|---------------------------------|
B|-3h5---------3-------------------|
G|---------------------------------|
D|---------------------------------|
A|---------------------------------|
E|-------------------------3b------|
   *   *   *   *   *   *   *   *  


   Love        me      In  your heart
e|---------------------------------|
B|-1h3---------1-------3/5-3\1-----|
G|-2-----------2---------------2---|
D|-0-----------0-------------------|
A|---------------------------------|
E|---------------------------------|
   *   *   *   *   *   *   *   * 


Transition:


  1:22

e|---------------------------------|
B|---------------------------------|
G|---2-----2-----2---2-------------|
D|---2-----2-----2---2-------------|
A|-0-----0-----0-------------------|
E|---------------------0---3---4---|
   *   *   *   *   *   *   *   *   



e|---------------------------------|
B|---------------------------------|
G|---2-----2-----2---2-------------|
D|---2-----2-----2---2-------------|
A|-0-----0-----0-------0-----------|
E|-------------------------3b------|
   *   *   *   *   *   *   *   * 



Repeat Bridge:


  1:28



Solo 1:


Rhythm: (Bass EQ)


  1:41

e|---------------------------------------------------------------------|
B|---------------------------------------------------------------------|
G|---------------------------------------------------------------------|
D|-7---x---x-x-7---5---x---x-x-5---7---x---x---x---x---x---x---x-x-5---|  X4
A|-7---x---x-x-7---5---x---x-x-5---7---x---x---x---x---x---x---x-x-5---|
E|-5---x---x-x-5---3---x---x-x-3---5---x---x---x---x---x---x---x-x-3---|
   *   *   *   *   *   *   *   *   *   *   *   *   *   *   *   *   *


Main: (Treble EQ)


  1:41
                                                             & = 7b9r7
e|-----------------------------------------------------5---------------|
B|-------------------------------------------------------8p5-----------|
G|-----------------------------------------7b~~9~~~~---------&---5-----|
D|---------5h7---------------------------------------------------------| 
A|---------------------------------------------------------------------|
E|---------------------------------------------------------------------|
   *   *   *   *   *   *   *   *   *   *   *   *   *   *   *   *   *

  1:49

e|---------------------------------------------------------------------|
B|---------------------------------------------------------------------|
G|-------------------------------------7b9r7p5-7p5-7b9r7p5-------------|
D|-5---5h7---------------------5h7-------------------------7-----------|  
A|---------------------------------------------------------------------|
E|---------------------------------------------------------------------|
   *   *   *   *   *   *   *   *   *   *   *   *   *   *   *   *   *


  1:56
 
e|---------------------------------------------------------------------|
B|---------------------------------8-----------------------------------|
G|-----------------------------7/9-----------------------------------5-|
D|-5h7---------------------------------------------------------5/7-----| 
A|---------------------------------------------------------------------|
E|---------------------------------------------------------------------|
   *   *   *   *   *   *   *   *   *   *   *   *   *   *   *   *   *
                               === =                           ===   =
  2:03                         

e|---------------------------------------------------------------------|
B|---------------------------------------------------------------------|
G|---------------------------------------------------------------------|
D|-----5/7---------5---5/7-------------7\5-----------------------------|
A|-------------5/7-------------------------7\5-3-----------------------|
E|-------------------------------------------------5-------------------|
   *   *   *   *   *   *   *   *   *   *   *   *   *   *   *   *   *
       ===     === =   ===
                               2:07
                            e|-5---------------------------------------|
                            B|-5---------------------------------------|
                            G|-6---------------------------------------|
Rhythm Joins in:            D|-7-----------7p5-------------------------|  
                            A|-7---------------7p5-3-------------------|
                            E|-5-----------------------5---------------|
                               *   *   *   *   *   *   *   *   *   *  

  Rhythm continues
e|-7-----------|
B|-7-----------|
G|-7-----------|
D|-7-----------|
A|-------------|
E|-------------|
   *   *   *   


Verse 2:


  2:12
Well I'll hold you near                     
and I'll whisper in your ear



  2:31
Now I'll take your hand                       
and we'll make me understand     



Repeat Chorus:


  2:53



Transition:


  2:59

e|---------------------------------|
B|---------------------------------|
G|---2-----2-----2---2-------------|
D|---2-----2-----2---2-------------|
A|-0-----0-----0-------------------|
E|---------------------0---3---4---|
   *   *   *   *   *   *   *   *   



e|---------------------------------|
B|-------------------------3/5-----|
G|---2-----2-----2---0-------------|
D|---2-----2-----2---0-------------|
A|-0-----0-----0-------------------|
E|---------------------------------|
   *   *   *   *   *   *   *   * 



Bridge/Outro:


  3:06 3:13 3:19
   & =5h7          & = 5p3p0
e|---------------------------------| 
B|---------------------------------|
G|---------------------------------|
D|-&-5-----------------------------|
A|-----7-7\5-3-5---&---------------|
E|---------------------3-/-5-------|
   *   *   *   *   *   *   *   *   

  3:09 3:16 3:23
   & = 5h7                 & = 5p3p0
e|---------------------------------|
B|---------------------------------|
G|---------------------------------|
D|-&-5-----------------------------|
A|-----7-7\5-3-5---3h5-3h5-&-------|
E|-----------------------------3---|
   *   *   *   *   *   *   *   *  

  3:26
   & =5h7          & = 5p3p0
e|---------------------------------| 
B|---------------------------------|
G|---------------------------------|
D|-&-5-----------------------------|
A|-----7-7\5-3-5---&---------------|
E|---------------------3-/-5-------|
   *   *   *   *   *   *   *   *  

  3:29
   & = 5h7                 & = 5p3p0
e|---------------------------------|
B|---------------------------------|
G|---------------------------------|
D|-&-5-----------------------------|
A|-----7-7\5-3-5---5/7-5---3-------|
E|-----------------------------3---|
   *   *   *   *   *   *   *   *

  3:33  3:42

e|-------------|
B|-------------|
G|-------------| 
D|-7----7/19---|
A|-7----7/19---|
E|-5----5/17---|

            
            
Suggest correction
Creating personal tab
Creating personal tab
You can edit any tab online and save it as your Personal.

You can edit, replace or remove any tab part or add personal notes – all changes will be seen only by you.

Personal tabs can be accessed anytime from any device, even offline.
Learn more »
comments
print report bad tab
6 comments total. Showing first comments.
0 reply
newg [tm] 50,144 May 27, 2013 09:18 AM

You forgot the chords on the chorus : Hold me Love me in your heart (E5 D5 , D5 C5 .... More nice to play live (see videos )

But the rest is the most accurate version, i play it, this may.

0 reply
coman91 1,552 May 27, 2013 09:51 AM

You're right. I've seen chord versions on multiple live version videos. I wasn't sure if that's how it was in the recorded version so I just tabbed what I heard.

0 reply
samuelon58 10 Jun 18, 2013 01:42 AM

This is an excellent tab. I use it exactly as shown. Thanks a bunch.

guest
You may want to rate the tab now too:
select rating
Wanna post a correction for this tab? Suggest correction