Oops, an error
Loading. Please wait.
We have an official Tighten Up tab made by UG professional guitarists. Check out the tab »
×
20,517 views 3 this week
2 commentsread comments
1 2 3 4 5
x 6
add to favorites
×
Save as Personal and add changes to this tab that will be seen only by you. Learn more ›
×
You can save this tab as Personal to edit and correct it or add notes. All changes will be seen only by you. Learn more »
launch autoscroll
font size
0
reset
guitar tuner
backing track
0:00
0:00
edit
Autoscroll
slow
fast
+/-
esc
set tempo
stop
Author
Difficulty
Song: Tighten Up
Artist: The Black Keys
Album: Brothers
Tuning: Standard E

Tabbed by: Beckett Woodworth
Email: beckett360@yahoo.com

This song is basically F#, A, B, and D.

Intro:
G|-------------------|
D|-------------------|
A|-------------------|
E|2-----2-2---2--2-2-|

G|-----------------------------------------------|
D|-----------------------------------------------|
A|--------------------------2-----2---4----4-----| x2
E|2-----2---5-----5--------------------------5---| 

Bass riff:
G|--11-11-9-11-9---------9-----------------------------------------|
D|---------------11-9-11---11-9-7--9-7-9-9-7-9-7-------------------|
A|-----------------------------------------------9-7-9-7-----------|
E|--------------------------------------------------------7/9\7-5--|

Verse: 
G|-------------------------------------------------------|
D|----------------------------------------------------2--|
A|----------------------------2-----2-2----4----4--------|
E|2-----2-2----5-----5-5---------------------------------| 

G|----------------|
D|----------------|
A|----------------|
E|2---2---2---2---|

Chorus: 
G|----------------------------------------------------------------------|
D|-------------------------------------------------------------4--2-----|
A|------2-4---4----------2-4---4----------2-4---4------------2------4---|
E|2----------------2----------------2----------------5----5-------------|

            
            
Suggest correction
Creating personal tab
Creating personal tab
You can edit any tab online and save it as your Personal.

You can edit, replace or remove any tab part or add personal notes – all changes will be seen only by you.

Personal tabs can be accessed anytime from any device, even offline.
Learn more »
comments
print report bad tab
2 comments total.
0 reply
chaotic donut 10 Jul 29, 2010 07:00 AM

I like how you added the main riff solo thingy

0 reply
KennyM79 2,238 Feb 25, 2016 03:50 AM

Not only are there lots of parts missing, but the author has included sections that aren't even in the song. Where does this "bass riff" section fall in the song?! This is just no good. **

guest
You may want to rate the tab now too:
select rating
Wanna post a correction for this tab? Suggest correction