Oops, an error
Loading. Please wait.

Fight With Seymour bass

version 1
version 1

Whole song

Interactive

1,096 views 6 this week
no commentswrite comment
1 2 3 4 5
2 more votes to show rating
add to favorites
×
Save as Personal and add changes to this tab that will be seen only by you. Learn more ›
×
You can save this tab as Personal to edit and correct it or add notes. All changes will be seen only by you. Learn more »
launch autoscroll
font size
0
reset
guitar tuner
edit
Autoscroll
slow
fast
+/-
esc
set tempo
stop
[Intro]
 E|------------------------|
 B|------------------------|
 G|---------7---------4----|
 D|---5--4-----2--2--0-2---| (Slow)
 A|------------------------|
 E|------------------------|

 [Riff one]
 E|----------------------|
 B|----------------------|
 G|----------------------|
 D|---2---0---2-2---0----|(x12)
 A|-----2---2-----2---2--|
 E|----------------------|

Followed by:
[Riff two]
 E|---------------------|
 B|---------------------|
 G|---------------------|
 D|---5---3---5-5---3---|(x8 or x9, Listen while playing and you'll find out)
 A|-----5---5-----5---5-|
 E|---------------------|

[Riff one]
 E|----------------------|
 B|----------------------|
 G|----------------------|
 D|---2---0---2-2---0----| (x2) Then stop for scale passage. Then (x2) again, Then stop 
scale passage
 A|-----2---2-----2---2--|   Then play (x10) (i think)
 E|----------------------|

Followed by:

 [Progression 1]
 E|----------------------------------------------------------------------------|
 B|----------------------------------------------------------------------------|
 G|----------------------------------------------------------------------------|
 D|---2---0---2-2---0----------------------------------------------------------|
 A|-----2---2-----2---2-5---3---5-5---3---3---2---3-3---2---3---1---3-3---1----|
 E|-----------------------5---5-----5---5---5---5-----5---5---3---3-----3---3--|


 e|----------------------------------------------------------------------------|
 B|----------------------------------------------------------------------------|
 G|----------------------------------------------------------------------------|
 D|---0---0---0-0---0---2---0---2-2---0---3---1---3-3---1---5---3---5-5---3----|
 A|-----0---0-----0---0---2---2-----2---2---3---3-----3---3---5---5-----5---5--|
 E|----------------------------------------------------------------------------|

Then

 [Riff 3]
 e|--------------------|
 B|--------------------|
 G|--------------------|
 D|---3---1---3-3---1--| (x10)
 A|-----3---3-----3---3|
 E|--------------------|


 [Progression 2]
 e|----------------------------------------------------------------------------|
 B|----------------------------------------------------------------------------|
 G|---------------------------------------------------------1-------1-1--------|
 D|---5---3---5-5---3-2-------------------4---2---4-4---2-------2---------2----|
 A|-----5---5-----5-----5---3---5-5---3-----4---4-----4---4---4---4-----4---4--|
 E|-----------------------5---5-----5---5--------------------------------------|

<2:06>


 [New bit 1]
 e|----------------------------------------------------------------------------|
 B|----------------------------------------------------------------------------|
 G|----------------------------------------------------------------------------|
 D|-----------------1-2-----------------------------1-2-------0-2-3------------|
 A|-----------1-2-4-------(Drums)-------------1-2-4---------4------------------|
 E|---4-----4-----------2-----------4-------4-----------2----------------------|

<2.22>

 [New bit 2]
 e|------------------------------|
 B|------------------------------|
 G|------------------------------|
 D|---4-4-4-4-2h4-4-2h4-4-4-2h4--|(x5)
 A|------------------------------|
 E|------------------------------|

 [New bit 3]
 e|-----------------------------|
 B|-----------------------------|
 G|-----------------------------|
 D|-----------------------------|(x2)
 A|---6-6-6-6-4h6-6-4h6-6-6-4h6-|
 E|-----------------------------|

Then play [New bit 2] x2

Then:

<2:54>

 [Riff 4]
 e|---------------------|
 B|---------------------|
 G|---------------------|
 D|---6---4---6-6---4---|(x6)
 A|-----6---6-----6---6-|
 E|---------------------|

[Riff 2]
 E|---------------------|
 B|---------------------|
 G|---------------------|
 D|---5---3---5-5---3---|(x8)
 A|-----5---5-----5---5-|
 E|---------------------|

 [Riff 1]
 E|----------------------|
 B|----------------------|
 G|----------------------|
 D|---2---0---2-2---0----|(x2, Then break for scale, then x2, Then break for scale, then 
more)
 A|-----2---2-----2---2--|
 E|----------------------|

 [Solo acc.]
 e|----------------------------------------------------------------------------|
 B|----------------------------------------------------------------------------|
 G|----------------------------------------------------------------------------|
 D|---2-(hold for the whole keyboard thing.)-----2(Hold for the guitar thing)--|(x1)
 A|----------------------------------------------------------------------------|
 E|----------------------------------------------------------------------------|

[Riff 3]
 e|--------------------|
 B|--------------------|
 G|--------------------|
 D|---3---1---3-3---1--| (x10)
 A|-----3---3-----3---3|
 E|--------------------|

 [Progression 2]
 e|----------------------------------------------------------------------------|
 B|----------------------------------------------------------------------------|
 G|---------------------------------------------------------1-------1-1--------|
 D|---5---3---5-5---3-2-------------------4---2---4-4---2-------2---------2----|
 A|-----5---5-----5-----5---3---5-5---3-----4---4-----4---4---4---4-----4---4--|
 E|-----------------------5---5-----5---5--------------------------------------|


 [New bit 1] (Well, not new anymore :P)
 e|----------------------------------------------------------------------------|
 B|----------------------------------------------------------------------------|
 G|----------------------------------------------------------------------------|
 D|-----------------1-2-----------------------------1-2-------0-2-3------------|
 A|-----------1-2-4-------(Drums)-------------1-2-4---------4------------------|
 E|---4-----4-----------2-----------4-------4-----------2----------------------|

[New bit 2]
 e|------------------------------|
 B|------------------------------|
 G|------------------------------|
 D|---4-4-4-4-2h4-4-2h4-4-4-2h4--|(x4)
 A|------------------------------|
 E|------------------------------|

<>< END ><>


So, The sequence is this:

[Intro]>

[Riff 1]x12 >
[Riff 2] x8 >

[Riff 1] x2
(Short break)
[Riff 1] x2
(Short break)
[Riff 1] x10

[Progression 1] x1
[Riff 3] x10
[Progression 2] x1

<2:06>
[New Bit 1] x1
[New Bit 2] x5
[New Bit 3] x2
[New Bit 2] x2

<2:54>
[Riff 4] x6
[Riff 2] x8
[Riff 1] x2
(Short break)
[Riff 1] x2
(Short Break)
[Riff 1] x2

[Solo acc.]

[Riff 3] x10
[Progression 2] x1
[New bit 1] x1
[New bit 2] x4

<>< END ><>

~Blix


Compiled with TabPlayer :: http://www.simoneperandini.com/tabplayer/

            
            
Suggest correction
Creating personal tab
Creating personal tab
You can edit any tab online and save it as your Personal.

You can edit, replace or remove any tab part or add personal notes – all changes will be seen only by you.

Personal tabs can be accessed anytime from any device, even offline.
Learn more »
Give kudos to tab author, rate the tab!
1 2 3 4 5
comments
print report bad tab
guest
Wanna post a correction for this tab? Suggest correction