Oops, an error
Loading. Please wait.

Those Who Fight Further tab

version 1
version 1

Whole song

Interactive

42,244 views 12 this week
2 commentsread comments
1 2 3 4 5
x 13
add to favorites
×
Save as Personal and add changes to this tab that will be seen only by you. Learn more ›
×
You can save this tab as Personal to edit and correct it or add notes. All changes will be seen only by you. Learn more »
launch autoscroll
font size
0
reset
how to read this tab
guitar tuner
edit
Autoscroll
slow
fast
+/-
esc
set tempo
stop
Author
e|------------------------------|-------------------------------------|
B|------------------------------|-------------------------------------|
G|------------------------------|-------------------------------------|
D|-----------5-------------7----|-------------------------------------|
A|-----------3-------------5----|-----------6--5-----5----------------|
E|--5--5--5-------5--5--5-------|--5--5--5--------8-----8--7--8----7--|

e|------------------------------|-------------------------------------|
B|------------------------------|-------------------------------------|
G|------------------------------|-------------------------------------|
D|-----------5-------------7----|-------------------------------------|
A|-----------3-------------5----|-----------6--5-----5----------------|
E|--5--5--5-------5--5--5-------|--5--5--5--------8-----8--7--8----7--|

e|-------------------------------|------------------------------------------|
B|-------------------------------|------------------------------------------|
G|-------------------------------|------------------------------------------|
D|-----------8-------------10----|------------------------------------------|
A|-----------6--------------8----|-----------9--8------8--------------------|
E|--8--8--8-------8--8--8--------|--8--8--8--------11-----11--10--11----10--|

e|-------------------------------|------------------------------------------|
B|-------------------------------|------------------------------------------|
G|-------------------------------|------------------------------------------|
D|-----------8-------------10----|------------------------------------------|
A|-----------6--------------8----|-----------9--8------8--------------------|
E|--8--8--8-------8--8--8--------|--8--8--8--------11-----11--10--11----10--|

e|------------------------------|-------------------------------------|
B|------------------------------|-------------------------------------|
G|------------------------------|-------------------------------------|
D|-----------5-------------7----|-------------------------------------|
A|-----------3-------------5----|-----------6--5-----5----------------|
E|--5--5--5-------5--5--5-------|--5--5--5--------8-----8--7--8----7--|

e|------------------------------|-------------------------------------|
B|------------------------------|-------------------------------------|
G|------------------------------|-------------------------------------|
D|-----------5-------------7----|-------------------------------------|
A|-----------3-------------5----|-----------6--5-----5----------------|
E|--5--5--5-------5--5--5-------|--5--5--5--------8-----8--7--8----7--|

e|-------------------------------|------------------------------------------|
B|-------------------------------|------------------------------------------|
G|-------------------------------|------------------------------------------|
D|-----------8-------------10----|------------------------------------------|
A|-----------6--------------8----|-----------9--8------8--------------------|
E|--8--8--8-------8--8--8--------|--8--8--8--------11-----11--10--11----10--|

e|-------------------------------|------------------------------------------|
B|-------------------------------|------------------------------------------|
G|-------------------------------|------------------------------------------|
D|-----------8-------------10----|------------------------------------------|
A|-----------6--------------8----|-----------9--8------8--------------------|
E|--8--8--8-------8--8--8--------|--8--8--8--------11-----11--10--11----10--|

e|------------------------|------------------------|--------------------|
B|------------------------|------------------------|--------------------|
G|------------------------|------------------------|--------------------|
D|------------------------|--5----5----------------|--------------------|
A|--7----7-------2--------|--3----3-------5--------|--3------------5----|
E|--5----5-------0--------|---------------3--------|--1------------3----|

e|--------------------|------------------------|------------------------------|
B|--------------------|------------------------|------------------------------|
G|--------------------|------------------------|------------------------------|
D|--------------------|------------------------|--5----5------------7----9----|
A|--8--------7--------|--7----7-------2--------|--3----3-------5----5----7----|
E|--5--------4--------|--5----5-------0--------|---------------3--------------|

e|--------------------|--------------------|----------------------------------|
B|--------------------|--------------------|----------------------------------|
G|--------------------|--------------------|----------------------------------|
D|--------------------|--------------------|--7-------------------------------|
A|--3------------5----|--8--------7--------|--7-------------------------------|
E|--1------------3----|--5--------4--------|--5----5--5--5--5--5--5--5--5--5--|

e|-----------------------------------|--------------------------------|
B|-----------------------------------|--------------------------------|
G|-----------------------------------|--2----2-----------2----2-------|
D|-----------------------------------|--2----2-----------2----2-------|
A|-----------------------------------|--0----0-----------0----0-------|
E|--5--5--5--5--5--5--5--5--5--5/----|----------0--3--4---------------|

e|--------------------------------|--------------------------------|
B|--------------------------------|--------------------------------|
G|--2----2-----------2----2-------|--2----2-----------2----2-------|
D|--2----2-----------2----2-------|--2----2-----------2----2-------|
A|--0----0-----------0----0-------|--0----0-----------0----0-------|
E|----------0--3--4---------------|----------0--3--4---------------|

e|----------------------------------|--------------------------------|
B|----------------------------------|--------------------------------|
G|--2----2-----------2--------------|--2----2-----------2----2-------|
D|--2----2-----------2--------------|--2----2-----------2----2-------|
A|--0----0-----------0--------------|--0----0-----------0----0-------|
E|----------0--3--4-------0----3----|----------0--3--4---------------|

e|--------------------------------|--------------------------------|
B|--------------------------------|--------------------------------|
G|--2----2-----------2----2-------|--2----2-----------2----2-------|
D|--2----2-----------2----2-------|--2----2-----------2----2-------|
A|--0----0-----------0----0-------|--0----0-----------0----0-------|
E|----------0--3--4---------------|----------0--3--4---------------|

e|----------------------------------|-------------------|-------------------|
B|----------------------------------|-------------------|-------------------|
G|--2----2-----------2---------2----|-------------------|-------------------|
D|--2----2-----------2---------2----|-------------------|--5----------------|
A|--0----0-----------0---------0----|--5----------------|--3----------------|
E|----------0--3--4-------3---------|--3----------------|-------------------|

e|-------------------|-------------------------|-------------------|
B|-------------------|-------------------------|-------------------|
G|-------------------|-------------------------|-------------------|
D|-------------------|--5-----------------5----|-------------------|
A|--5----------------|--3--------3--3--3--3----|--7----------------|
E|--3----------------|-------------------------|--5----------------|

e|-------------------|-------------------|----------------------------|
B|-------------------|-------------------|----------------------------|
G|-------------------|-------------------|----------------------------|
D|--7----------------|-------------------|--------------------8-------|
A|--5----------------|--7----------------|--8-----------------8-------|
E|-------------------|--5----------------|--6--------6--6--6--6-------|

e|--------------------------------|-------------------------------|
B|--------------------------------|-------------------------------|
G|--------------------------------|-------------------------------|
D|--7-----------------------------|--------------------------5----|
A|--5----5----5--5----5--5--5--5--|--5----5--5----5--5----5--3----|
E|--------------------------------|-------------------------------|

e|-------------------------------|---------------------------|
B|-------------------------------|---------------------------|
G|-------------------------------|---------------------------|
D|--7----------------------------|---------------------------|
A|--5----5----5--5----5--5----5--|--5----0----3----2p--0-----|
E|-------------------------------|------------------------3--|

e|-------------------------------|-------------------------------|
B|-------------------------------|-------------------------------|
G|-------------------------------|-------------------------------|
D|--2----------------------------|-------------------------------|
A|--0----0----0--0----0--0----0--|--0----0--0----0--0----0-------|
E|-------------------------------|--------------------------3----|

e|-------------------------------|----------------------|
B|-------------------------------|----------------------|
G|-------------------------------|----------------------|
D|--2----------------------------|----------------------|
A|--0----0----0--0----0--0----0--|--0----2----3----4----|
E|-------------------------------|----------------------|

e|--------------------------------|-------------------------------|
B|--------------------------------|-------------------------------|
G|--------------------------------|-------------------------------|
D|--7-----------------------------|--------------------------5----|
A|--5----5----5--5----5--5--5--5--|--5----5--5----5--5----5--3----|
E|--------------------------------|-------------------------------|

e|-------------------------------|---------------------------|
B|-------------------------------|---------------------------|
G|-------------------------------|---------------------------|
D|--7----------------------------|---------------------------|
A|--5----5----5--5----5--5----5--|--5----0----3----2p--0-----|
E|-------------------------------|------------------------3--|

e|-------------------------------|-------------------------------|
B|-------------------------------|-------------------------------|
G|-------------------------------|-------------------------------|
D|--2----------------------------|-------------------------------|
A|--0----0----0--0----0--0----0--|--0----0--0----0--0----0-------|
E|-------------------------------|--------------------------3----|

e|-------------------------------|----------------------|
B|-------------------------------|----------------------|
G|-------------------------------|----------------------|
D|--2----------------------------|----------------------|
A|--0----0----0--0----0--0----0--|--0----2----3----4----|
E|-------------------------------|----------------------|

e|--------------------------------|-------------------------------|
B|--------------------------------|-------------------------------|
G|--------------------------------|-------------------------------|
D|--7-----------------------------|--------------------------5----|
A|--5----5----5--5----5--5--5--5--|--5----5--5----5--5----5--3----|
E|--------------------------------|-------------------------------|

e|-------------------------------|---------------------------|
B|-------------------------------|---------------------------|
G|-------------------------------|---------------------------|
D|--7----------------------------|---------------------------|
A|--5----5----5--5----5--5----5--|--5----0----3----2p--0-----|
E|-------------------------------|------------------------3--|

e|-------------------------------|-----------------------------|
B|-------------------------------|-----------------------------|
G|-------------------------------|-----------------------------|
D|--2----------------------------|------------------9-----9----|
A|--0----0----0--0----0--0----0--|--0----0--0----0--7-----7----|
E|-------------------------------|-----------------------------|

e|--------------------|--------------------|------------------------------|
B|--------------------|--------------------|------------------------------|
G|--5--------2--------|--------------------|------------------------------|
D|--5--------4--------|--5--------2--------|-----------5-------------7----|
A|--3--------3--------|--2--------2--------|-----------3-------------5----|
E|--------------------|--------------------|--5--5--5-------5--5--5-------|

e|-------------------------------------|------------------------------|
B|-------------------------------------|------------------------------|
G|-------------------------------------|------------------------------|
D|-------------------------------------|-----------5-------------7----|
A|-----------6--5-----5----------------|-----------3-------------5----|
E|--5--5--5--------8-----8--7--8----7--|--5--5--5-------5--5--5-------|

e|-------------------------------------|-------------------------------|
B|-------------------------------------|-------------------------------|
G|-------------------------------------|-------------------------------|
D|-------------------------------------|-----------8-------------10----|
A|-----------6--5-----5----------------|-----------6--------------8----|
E|--5--5--5--------8-----8--7--8----7--|--8--8--8-------8--8--8--------|

e|-------------------------------------------|-------------------------------|
B|-------------------------------------------|-------------------------------|
G|-------------------------------------------|-------------------------------|
D|-------------------------------------------|-----------8-------------10----|
A|-----------9--8------8---------------------|-----------6--------------8----|
E|--8--8--8--------11-----11--10-10-8----10--|--8--8--8-------8--8--8--------|

[Guitar Solo]
e|-------------------------|----------------------|--------------------------------|
B|-------------------------|----------------------|-------------------5------------|
G|--5b---------------------|----------------------|--5----2h--4h--5-------/9-------|
D|----------------7-----5--|--7~------------/7----|--------------------------------|
A|-------------------7-----|----------------------|--------------------------------|
E|-------------------------|----------------------|--------------------------------|

e|---------------------------------|----------------8------------------|
B|--10----10--L--------8h--10p--8--|--11b--------L-----11--10p--9p--8--|
G|---------------------------------|-----------------------------------|
D|---------------------------------|-----------------------------------|
A|---------------------------------|-----------------------------------|
E|---------------------------------|-----------------------------------|

e|------------------------------------------|
B|------------------------------------------|
G|--10--8p--7h--8p--5h--7--4h--5----L-------|
D|------------------------------------------|
A|------------------------------------------|
E|------------------------------------------|

e|------------------------------------------|-------------------------------------|
B|------------------------------------------|-------------------------------------|
G|--10p--8p--0--8p--7p--0-------------8-----|----------4--5-----4--0--3--0--2-----|
D|-------------------------10--8------------|--5b----7--------7-------------------|
A|--------------------------------10--------|-------------------------------------|
E|------------------------------------------|-------------------------------------|

e|----------------------------------|
B|-----------15b----15pb----15pb----|
G|----------------------------------|
D|----------------------------------|
A|----------------------------------|
E|----------------------------------|

e|-------------------------------------15brb-----L--|
B|--15pbr----L--15p--13-----------------------------|
G|-----------------------14p--13p--12---------------|
D|--------------------------------------------------|
A|--------------------------------------------------|
E|--------------------------------------------------|

e|--L----L----12----------------------|
B|----------------15--14--13--12------|
G|--------------------------------14--|
D|------------------------------------|
A|------------------------------------|
E|------------------------------------|

e|-------------------------------------------------|
B|-------------------------------------------------|
G|--12--14------12------11------10------9------8~--|
D|----------14------14------13------12-----11------|
A|-------------------------------------------------|
E|-------------------------------------------------|

e|---------------------------------|-------------------------------------|
B|---------------------------------|------------8------------------------|
G|--L------------------------------|---------------11p--10--8p--7--------|
D|-----------10------8--10---------|-------------------------------10----|
A|---------------10---------10-----|--L----------------------------------|
E|---------------------------------|-------------------------------------|

e|----------------------------------------------|
B|----------------------------------------------|
G|--7---------10--8-----------------------------|
D|-----9--10---------10--8--10------8-----------|
A|------------------------------10-----10-------|
E|----------------------------------------------|

e|----------------------------------------10h--11p--10--|--12-----------------|
B|----------------------------10--12--13----------------|---------------------|
G|----------------10--11--13----------------------------|---------------------|
D|--8g10--12--13----------------------------------------|---------------------|
A|------------------------------------------------------|---------------------|
E|------------------------------------------------------|---------------------|

e|---------------------------------------|
B|------------------------------------5--|
G|--------------------2--5--2--4s--5--5--|
D|--------2--5--2--4---------------------|
A|--2--3---------------------------------|
E|---------------------------------------|

e|---------------------------7---------8------|
B|---------6---------8--6g8-----8--10-----10--|
G|--5s--7-----7s--9---------------------------|
D|--------------------------------------------|
A|--------------------------------------------|
E|--------------------------------------------|

e|------10----------------10g12----13----15----|--15br------15--15------------|
B|--12---L--12--L----12-----------------------|-------------------------------|
G|---------------------------------------------|------------------------------|
D|---------------------------------------------|------------------------------|
A|---------------------------------------------|------------------------------|
E|---------------------------------------------|------------------------------|

e|--13g15--13-------------------------------------------|
B|------------16-15-13----------------------------------|
G|---------------------15-13-12-------------------------|
D|------------------------------15-13-12----------------|
A|---------------------------------------15-13----------|
E|---------------------------------------------16-15----|

e|------------------------------|--------------------------|
B|------------------------------|--------------------------|
G|-----------------8-----10-----|--10brb--L----L--L--------|
D|------------------------------|--------------------------|
A|-----------10-----------------|--------------------------|
E|--L---------------------------|--------------------------|

e|------------------------------------|
B|------------------------------------|
G|--10p--8----------------------------|
D|----------10p--8--------------------|
A|------------------10--8-------------|
E|-------------------------11~--------|

e|---------------------------------------------------------|
B|--17p--13--17p--12--17p--15--22p--13p--12--20p--13p--12--|
G|---------------------------------------------------------|
D|---------------------------------------------------------|
A|---------------------------------------------------------|
E|---------------------------------------------------------|

e|--------------------------12--13--14--15----|
B|--13--12------12--13--15--------------------|
G|----------14--------------------------------|
D|--------------------------------------------|
A|--------------------------------------------|
E|--------------------------------------------|

e|--10g12------8-------------------------|-----8--------L---------|
B|---------------8--------------------8--|------------------------|
G|-----------------11--10--9--10--11-----|--9--L--------L--7g8----|
D|---------------------------------------|------------------------|
A|---------------------------------------|------------------------|
E|---------------------------------------|------------------------|

e|---------------------8---------------------|
B|--11--10----L----11-----11--10--8--10------|
G|---------------------------------------10--|
D|-------------------------------------------|
A|-------------------------------------------|
E|-------------------------------------------|

e|--------------------------------------|
B|--8-----------------------------------|
G|-----8--10------8--10br--L--L----L----|
D|------------10------------------------|
A|--------------------------------------|
E|--------------------------------------|

e|-----------------------------------------------13---|--15~----------------|
B|-----------------------------13-15-16-13-15-16------|---------------------|
G|-----------12-13-15-12-13-15------------------------|---------------------|
D|--12-13-15------------------------------------------|---------------------|
A|----------------------------------------------------|---------------------|
E|----------------------------------------------------|---------------------|


************************************

| /    Slide up
| p    Pull-off
| h    Hammer-on
| b    Bend
| ~    Vibrato
| pb   Pre-bend
| pbr  Pre-bend release
| g    Grace note
| br   Bend release 

************************************

            
            
Suggest correction
Creating personal tab
Creating personal tab
You can edit any tab online and save it as your Personal.

You can edit, replace or remove any tab part or add personal notes – all changes will be seen only by you.

Personal tabs can be accessed anytime from any device, even offline.
Learn more »
comments
print report bad tab
2 comments total.
0 reply
Saitoh 10 Aug 28, 2007 01:41 PM

Awesome tab! =D

0 reply
equilibrium_9 20 Jul 18, 2008 04:49 AM

wicked tab matey!

guest
You may want to rate the tab now too:
select rating
Wanna post a correction for this tab? Suggest correction