Oops, an error
Loading. Please wait.

All Of Your Voices tab

259 views 3 this week
no commentswrite comment
1 2 3 4 5
3 more votes to show rating
add to favorites
×
Save as Personal and add changes to this tab that will be seen only by you. Learn more ›
×
You can save this tab as Personal to edit and correct it or add notes. All changes will be seen only by you. Learn more »
launch autoscroll
font size
0
reset
how to read this tab
guitar tuner
edit
Autoscroll
slow
fast
+/-
esc
set tempo
stop
Author
all of your voices 


[Intro and verse]

e|---------------------------------------------------------------------------|
B|---------------------------------------------------------------------------|
G|-----5--------12-------11------4------7-------11---------------------------|
D|-----(x5)-------(x2)-----(x3)---(x5)---(x2)-----(x5)-----------------------|
A|---------------------------------------------------------------------------|
E|--5--------12-------10-------3------7------10------------------------------|

(picking that goes through chorus)
e|-------12------------------------------------------------------------------|
B|---10------12---10---------------------------------------------------------|
G|---------------------------------------------------------------------------|
D|---------------------------------------------------------------------------|
A|---------------------------------------------------------------------------|
E|---------------------------------------------------------------------------|


[Verse]

Here, on the edge of nowhere in particular.
You would not be held up as food for the mouthless.

When, the gold was inched from your fingertips.
The world did not seem to explode into colours uncounted.

A                          G                  D
All of your voices never changed the face of me.
A                          G                  D
All of your faces never showed themselves to me.


[Chorus]

C  
Don't turn our back now honey
A                                         D(or something) 
You've seen the same thing running for years
                     Bm  
That have never gone by as you had wanted

C
There is no charm in money
A                                     D
I said the same thing hundreds of times
                 Bm
but you had that gold in your young eyes.


[Verse]

Born, from the pyre and burnt with each experience
the world did not seem, quite as cold as these flames have pretended.

A                          G                  D
All of your voices never changed the face of me.
A                          G                  D
All of your faces never showed themselves to me.


[Chorus] x2

C  
Don't turn our back now honey
A                                         D(or something) 
You've seen the same thing running for years
                     Bm  
That have never gone by as you had wanted

C
There is no charm in money
A                                     D
I said the same thing hundreds of times
                 Bm
but you had that gold in your young eyes.

            
            
Suggest correction
Creating personal tab
Creating personal tab
You can edit any tab online and save it as your Personal.

You can edit, replace or remove any tab part or add personal notes – all changes will be seen only by you.

Personal tabs can be accessed anytime from any device, even offline.
Learn more »
Give kudos to tab author, rate the tab!
1 2 3 4 5
comments
print report bad tab
guest
You may want to rate the tab now too:
select rating
Wanna post a correction for this tab? Suggest correction