Oops, an error
Loading. Please wait.

Rawhide bass

version 4
version 4

Whole song

Interactive

313 views 6 this week
no commentswrite comment
1 2 3 4 5
3 more votes to show rating
add to favorites
×
Save as Personal and add changes to this tab that will be seen only by you. Learn more ›
×
You can save this tab as Personal to edit and correct it or add notes. All changes will be seen only by you. Learn more »
launch autoscroll
font size
0
reset
guitar tuner
backing track
0:00
0:00
edit
Autoscroll
slow
fast
+/-
esc
set tempo
stop
Author
Rawhide
Taken from the film and album, this is The Blues Brothers version
Of the TV cowboy series theme tune.  Bass performance David ‘Duck’ Dunn. 
Tab by bass50611. Howdy Partners!! Think it’s more or less
As original. Symbol ‘.’ in Instrumental is a pause.
Comments at bass254@btinternet.com 

Intro:                                        (Play This x2)
G|--------------------------------------------------------|
D|--------------------------------------------------------|
A|---6-7----6-7----6-7----6-7----6-7----6-7----6-7----6-7-|
E|-5------5------5------5------5------5------5------5-----|

Verse 1:
G|---------------------------------------------------------|
D|------------------4-5----4-5----4-5----4-5----4-5----4-5-|
A|---6-7----6-7---3------3------3------3------3------3-----|
E|-5------5------------------------------------------------|

G|---------------------------------------------------------------|
D|-7---7--------5--7---5--5---3---2---2---5-6-7---7-------5--7---|
A|---7---7---5-------7----------3---2-----------7---7--5-------7-|
E|---------------------------------------------------------------|

G|---------------------|
D|-------7--5--7---7---|
A|-5--5----------7---7-|
E|---------------------|

Chorus:
G|--------------------------------------------------------------|
D|-------------------------------------------------7------7-----|
A|---3-5-7-------3-5-7-------3-5-7-------6-7-8--7----6-7----6-7-|
E|-5-------0---5-------0---5-------0---5------------------------|

      (Key Change)
G|------------------------------------
D|-7------8-------8------8------8-----
A|---6-7----7-8-----7-8----7-8----7-8-
E|------------------------------------

Verse 2:
G|----------------------------------------------------------
D|--8------8---------5-6----5-6----5-6----5-6----5-6----5-6-
A|----7-8----7-8---4------4------4------4------4------4-----
E|----------------------------------------------------------

G|---------------------------------------------------------------|
D|-8---8--------6--8---6--6---4---3---3---6-7-8---8-------6--8---|
A|---8---8---6-------8----------4---3-----------8---8--6-------8-|
E|---------------------------------------------------------------|

G|---------------------|
D|-------8--6--8---8---|
A|-6--6----------8---8-|
E|---------------------|

Chorus 2:
G|------------------------------------------------|
D|------1-3---------1-3---------1-3------2-3-4--3-|
A|-1--4--------1--4--------1--4--------1----------|
E|----------1-----------1-----------1-------------|

G|-3------3------3------3-----
D|---2-3----2-3----2-3----2-3-
A|----------------------------
E|----------------------------

Instrumental:
G|-3------3------3------3------6------6------6------6--5-|
D|---2-3----2-3----2-3----2-3----5-6----5-6----5-6-------|
A|-------------------------------------------------------|
E|-------------------------------------------------------|
                       ‘.’
G|-3---3-------1--3----------3--1--3-----3-----
D|---3---3-2-1------3-2-1------------2-3---2-3-
A|---------------------------------------------
E|---------------------------------------------

Outro:
G|------------------------------------------------|
D|------1-3---------1-3---------1-3------2-3-4--3-|
A|-1--4--------1--4--------1--4--------1----------|
E|----------1-----------1-----------1-------------|

G|---------------------------------------------------------------|
D|---2-3----2-3----2-3----2-3----2-3----2-3----2-3----2-3----2-3-|
A|-1------1------1------1------1------1------1------1------1-----|
E|---------------------------------------------------------------|

                                     (END)
G|--------------------------------------|
D|---2-3----2-3----2-3----2-3----2-3----|
A|-1------1------1------1------1------1-|
E|--------------------------------------|

Alternative Outro:
G|------------------------------------------------|
D|------1-3---------1-3---------1-3------2-3-4--3-|
A|-1--4--------1--4--------1--4--------1----------|
E|----------1-----------1-----------1-------------|

G|---------------------------------------------------------------|
D|---2-3----2-3----2-3----2-3----2-3----2-3----2-3----2-3----2-3-|
A|-1------1------1------1------4------4------4------4------1-----|
E|---------------------------------------------------------------|

                                     (END)
G|--------------------------------------|
D|---2-3----2-3----2-3----2-3----2-3----|
A|-1------1------1------1------1------1-|
E|--------------------------------------|

(Symbol ‘.’ In Instrumental Is A Pause)


Rolling, rolling, rolling
Rolling, rolling, rolling
Rolling, rolling, rolling
Rolling, rolling, rolling

Rawhide

Roiling, rolling, rolling
Though the streams are swollen
Keep them doggies rolling
Rawhide

Rain and wind and weather
Hell bent for leather
Wishing my gal was by my side

All the things I'm missin'
Good vittels, lovin', kissin'
Are waiting at the end of my ride

Move 'em on, head' em up
Head 'em up, move' em on
Move 'em on, head' em up
Rawhide

Cut 'em out, ride 'em in
Ride 'em in, cut 'em out
Call 'em out, ride 'em in
Rawhide

Keep moving, moving, moving
Though they're disapproving
Keep them doggies moving
Rawhide

Don't try to understand 'em
Just rope, throw and brand 'em
Soon we'll be living high and wide

My heart calculatin'
My true love will be waitin'
Be waiting at the end of my ride
Move 'em on, head' em up
Head 'em up, move' em on
Move 'em on, head' em up
Rawhide

Cut 'em out, ride 'em in
Ride 'em in, cut 'em out
Call 'em out, ride 'em in
Rawhide

Move 'em on, head' em up
Head 'em up, move' em on
Move 'em on, head' em up
Rawhide

Cut 'em out, ride 'em in
Ride 'em in, cut 'em out
Call 'em out, ride 'em in
Rawhide

Rolling, rolling, rolling
Rolling, rolling, rolling
Rolling, rolling, rolling
Rolling, rolling, rolling
Rawhide

Rawhide

            
            
Suggest correction
Creating personal tab
Creating personal tab
You can edit any tab online and save it as your Personal.

You can edit, replace or remove any tab part or add personal notes – all changes will be seen only by you.

Personal tabs can be accessed anytime from any device, even offline.
Learn more »
Give kudos to tab author, rate the tab!
1 2 3 4 5
comments
print report bad tab
guest
You may want to rate the tab now too:
select rating
Wanna post a correction for this tab? Suggest correction