Oops, an error
Loading. Please wait.

Soul Man bass

version 3
version 3

Whole song

Interactive

4,843 views 1 this week
1 commentread comment
1 2 3 4 5
2 more votes to show rating
add to favorites
×
Save as Personal and add changes to this tab that will be seen only by you. Learn more ›
×
You can save this tab as Personal to edit and correct it or add notes. All changes will be seen only by you. Learn more »
launch autoscroll
font size
0
reset
guitar tuner
backing track
0:00
0:00
edit
Autoscroll
slow
fast
+/-
esc
set tempo
stop
band: Blues Brothers
song: Soul Man
originally done by: Sam and Dave

intro
G---------------------------------------|
D---------------------------------------|
A--8------8p6-6-------------------------|
E--------------------4---------6----8---|

verse
G--------------------|
D--------------------|
A--88-55---------5---|
E--------8--66-8-----|

G----------------------------------------|
D----------------------------------------|
A--88888888-66666666-88888888-88888888---|
E----------------------------------------|

G---------------------------------------|
D---------------------------------------|
A--88888888-66666666-88888888---5-8-----|
E-----------------------------6-----8---|

bridge
G--------------------------------------------------------------------------|
D--------------------------------------------------------------------------|
A--44------------------6666---6---6-----8888---8---8--44444444-666666666---|
E-----6666-22--4-6--44------4---4----66------6---6-------------------------|

G--------------------------------------|
D--------------------------------------|
A--8------8p6-6------------------------|
E--------------------4--------6----8---|

G---------------------------------------|
D---------------------------------------|
A--88888888-66666666------------5-8-----|
E--------------------44444444-6-----8---|

I think this is right, sounds better to me than other tabs on the web.
email me any comments or questions at catkiller44@yahoo.com

            
            
Suggest correction
Creating personal tab
Creating personal tab
You can edit any tab online and save it as your Personal.

You can edit, replace or remove any tab part or add personal notes – all changes will be seen only by you.

Personal tabs can be accessed anytime from any device, even offline.
Learn more »
Give kudos to tab author, rate the tab!
1 2 3 4 5
comments
print report bad tab
1 comment total.
0 reply
lilREDpunk 10 Mar 04, 2014 07:58 AM, edited at 12:59 pm

https://www.youtube.com/watch?list=UUjslS3UVg6V9VdLM_lJHKDg&v=-J0cxH0ahHY&feature=player_detailpage
It sounds pretty close to this, and I really like the way this guy plays it!

guest
Wanna post a correction for this tab? Suggest correction