Oops, an error
Loading. Please wait.

Im From There bass

version 1
version 1

Whole song

410 views 1 this week
no commentswrite comment
1 2 3 4 5
2 more votes to show rating
add to favorites
×
Save as Personal and add changes to this tab that will be seen only by you. Learn more ›
×
You can save this tab as Personal to edit and correct it or add notes. All changes will be seen only by you. Learn more »
launch autoscroll
font size
0
reset
guitar tuner
edit
Autoscroll
slow
fast
+/-
esc
set tempo
stop
Author
----------------------------------------------------------------------------
			     I'm From There - Bouncing Souls
----------------------------------------------------------------------------

Tabbed By : xnighttrainx	
e-mail: agent_0range182@yahoo.com

Tuning: Standard

Intro 
G|-12~-14~-12-10-9~-9h10-9----10~-9~-9h10h12-12-10-9-------------------9~--|
D|-------------------------12------------------------12-10~-10-10-9--------|
A|------------------------------------------------------------------12-----|
E|-------------------------------------------------------------------------|

Intro Continued...
G|-9h10-9----10~-9~-9h10p9-------------------------------------------------|
D|--------12---------------12~-12-10-9-------------------------------------|
A|-------------------------------------12/---------------------------------|
E|-------------------------------------------------------------------------|

Main Riff
G|-------------------------------------------------------------------------|
D|------------------7777777777777777-5555555555555555-3333333333333333-----|
A|-3333333333333333--------------------------------------------------------|
E|-------------------------------------------------------------------------|

Main Riff Varation
G|-------------------------------------------------------------------------|
D|------------------77777777777710101010-5555555555555555-3333333333333333-|
A|-3333333333333333--------------------------------------------------------|
E|-------------------------------------------------------------------------|

Verse/Bass Breakdown Riff
G|-------------------------------------------------------------------------|
D|-----------------------------------33333333-222222-0---------------------|
A|-3333333333333333------------------------------------3-------------------|
E|------------------5555555555555555---------------------3333333333333333--|

I'm 99% sure the intro is correct.  I've listened to it and played it a bunch,
and it sounds right.  The order is pretty easy to figure out.  Don't forget to rate.


| /  slide up
| \  slide down
| h  hammer-on
| p  pull-off
| ~  vibrato
| +  harmonic
| x  Mute note
============================================================================

            
            
Suggest correction
Creating personal tab
Creating personal tab
You can edit any tab online and save it as your Personal.

You can edit, replace or remove any tab part or add personal notes – all changes will be seen only by you.

Personal tabs can be accessed anytime from any device, even offline.
Learn more »
Give kudos to tab author, rate the tab!
1 2 3 4 5
comments
print report bad tab
guest
You may want to rate the tab now too:
select rating
Wanna post a correction for this tab? Suggest correction