Oops, an error
Loading. Please wait.
We have an official Believe tab made by UG professional guitarists. Check out the tab »
×
91,758 views 72 this week
8 commentsread comments
1 2 3 4 5
x 18
add to favorites
×
Save as Personal and add changes to this tab that will be seen only by you. Learn more ›
×
You can save this tab as Personal to edit and correct it or add notes. All changes will be seen only by you. Learn more »
launch autoscroll
font size
0
reset
how to read this tab
guitar tuner
edit
Autoscroll
slow
fast
+/-
esc
set tempo
stop
Author
EDIT 2: I got the first half of the solo!

EDIT: Thanks to Miles, Dylan, and Luis for their help.  I fixed the verse and added a
guitar as well as the outro. About all that is left to tab is the solo.

The Bravery:

Sam Endicott - Vocals, Guitar
Michael Zakarin - Lead Guitar, Backing Vocals
John Conway - Keyboard, programming, Backing Vocals
Michael Barreto Hindert - Bass, Backing Vocals
Anthony Burulcich - Drums, Backing Vocals


This is my very first tab and I know its not perfect or complete but it's a start.

Comments or edits would be greatly appreciated so that we can get a correct, 100%
tab done of this awesome song.

Much thanks to mychemkid202 for tabbing the bass intro for guitar.

Tuning: Standard

Intro
Bass Tabbed for Guitar (Michael Hindert):
e|--------------------------------------------------------------------------|
B|--------------------------------------------------------------------------|
G|--------------------------------------------------------------------------|x2
D|--------------------------------------------------------------------------|
A|--6-4-------------------4-------4-----------------------------------------|
A|--------6-4-6----6-4-6-------6-----1-1------------------------------------|

e|---------------|
B|---------------|
G|---------------|
D|---------------|
A|--6-4----------|
E|--------6-4----|

The the actual guitars come in, sounds great with lots of reverb

Refrain
Guitar 1 (Michael Zakarin):

e|-9-9-9-9-9-9-9-9-8-8-8-8-8-8-8-8-11-11-11-11-11-11-11-11------------------|
B|-6-6-6-6-6-6-6-6-6-6-6-6-6-6-6-6-9--9--9--9--9--9--9--9--11-11-11-11-11-11|
G|---------------------------------------------------------8--8--8--8--8--8-|
D|--------------------------------------------------------------------------|
A|--------------------------------------------------------------------------|
E|--------------------------------------------------------------------------|

e|-11-11-|
B|-8--8--|x2
G|-------|
D|-------|
A|-------|
E|-------|

Guitar 2 (Sam Endicott):


e|--------------------------------------------------------------------------|
B|--------------------------------------------------------------------------|
G|-----------------10-10-10-10-10-10-10-10-----------------4-4-4-4-4-4-4-4--|
D|-8-8-8-8-8-8-8-8-10-10-10-10-10-10-10-10-6-6-6-6-6-6-6-6-4-4-4-4-4-4-4-4--|x2
A|-8-8-8-8-8-8-8-8-8--8--8--8--8--8--8--8--6-6-6-6-6-6-6-6-6-6-6-6-6-6-6-6--|
E|-6-6-6-6-6-6-6-6-------------------------4-4-4-4-4-4-4-4------------------|

Verse
Guitar 1: (Use Upstrokes)
e|-6----6----6----4~---|
B|-6----6----6----4~---|
G|-6----6----6----6~---|x8
D|-8----8----8----5~---|
A|-8----8----8----5~---|
E|-6----6----6----4~---|

Guitar 2:

e|--------------------------------------------------------------|
B|--------------------------------------------------------------|
G|--------------------------------------------------------------|x2(?)
D|---------5-6p-5-6---8-10p8-10--12-13-12-10s8-10------10s6-8---|
A|--8p7-8-------------------------------------------------------|
E|--------------------------------------------------------------|


At the end of the verse the chorus mixes right in

Chorus
Guitar 1:

e|-13-13-13-13-13-13-13-13-13-13-13-13-13-13-13-13-13-13-13-13-13-13-16-16-|
B|-------------------------------------------11-11-11-11-11-11-11-11-14-14-|
G|-------------------------------------------------------------------------|
D|-------------------------------------------------------------------------|
A|-------------------------------------------------------------------------|
E|-------------------------------------------------------------------------|

e|-16-16-16-16-16-16-11-11-11-11-11-11-11-11--------------------------|
B|-14-14-14-14-14-14-9--9--9--9--9--9--9--9--11-11-11-11-11-11-11-11--|
G|-------------------------------------------8--8--8--8--8--8--8--8---|x4
D|--------------------------------------------------------------------|
A|--------------------------------------------------------------------|
E|--------------------------------------------------------------------|

Guitar 2:

e|------------------------------------------------------------------|
B|------------------------------------------------------------------|
G|-----------------6-6-6-6-6-6-6-6-----------------4-4-4-4-4-4-4-4--|
D|-8-8-8-8-8-8-8-8-6-6-6-6-6-6-6-6-6-6-6-6-6-6-6-6-4-4-4-4-4-4-4-4--|x4
A|-8-8-8-8-8-8-8-8-4-4-4-4-4-4-4-4-6-6-6-6-6-6-6-6-6-6-6-6-6-6-6-6--|
E|-6-6-6-6-6-6-6-6-----------------4-4-4-4-4-4-4-4------------------|

Refrain
Guitar 1:

e|-9-9-9-9-9-9-9-9-8-8-8-8-8-8-8-8-11-11-11-11-11-11-11-11------------------|
B|-6-6-6-6-6-6-6-6-6-6-6-6-6-6-6-6-9--9--9--9--9--9--9--9--11-11-11-11-11-11|
G|---------------------------------------------------------8--8--8--8--8--8-|
D|--------------------------------------------------------------------------|
A|--------------------------------------------------------------------------|
E|--------------------------------------------------------------------------|

e|-11-11-|
B|-8--8--|x1
G|-------|
D|-------|
A|-------|
E|-------|

Guitar 2:

e|-----------------------------------------------------------------|
B|-----------------------------------------------------------------|
G|-----------------10-10-10-10-10-10-10-10-----------------4-4-4-4-|
D|-8-8-8-8-8-8-8-8-10-10-10-10-10-10-10-10-6-6-6-6-6-6-6-6-4-4-4-4-|x1
A|-8-8-8-8-8-8-8-8-8--8--8--8--8--8--8--8--6-6-6-6-6-6-6-6-6-6-6-6-|
E|-6-6-6-6-6-6-6-6-------------------------4-4-4-4-4-4-4-4---------|

Back to Verse:
Guitar 1: (Use Upstrokes)

e|-6----6----6----4~---|
B|-6----6----6----4~---|
G|-6----6----6----6~---|x4
D|-8----8----8----5~---|
A|-8----8----8----5~---|
E|-6----6----6----4~---|

Guitar 2:

e|--------------------------------------------------------------|
B|--------------------------------------------------------------|
G|--------------------------------------------------------------|
D|---------5-6p-5-6---8-10p8-10--12-13-12-10s8-10------10s6-8---|x1
A|--8p7-8-------------------------------------------------------|
E|--------------------------------------------------------------|


Chorus
Guitar 1:

e|-13-13-13-13-13-13-13-13-13-13-13-13-13-13-13-13-13-13-13-13-13-13-16-16-|
B|-------------------------------------------11-11-11-11-11-11-11-11-14-14-|
G|-------------------------------------------------------------------------|
D|-------------------------------------------------------------------------|
A|-------------------------------------------------------------------------|
E|-------------------------------------------------------------------------|

e|-16-16-16-16-16-16-11-11-11-11-11-11-11-11--------------------------|
B|-14-14-14-14-14-14-9--9--9--9--9--9--9--9--11-11-11-11-11-11-11-11--|
G|-------------------------------------------8--8--8--8--8--8--8--8---|x4
D|--------------------------------------------------------------------|
A|--------------------------------------------------------------------|
E|--------------------------------------------------------------------|

Guitar 2:

e|------------------------------------------------------------------|
B|------------------------------------------------------------------|
G|-----------------6-6-6-6-6-6-6-6-----------------4-4-4-4-4-4-4-4--|
D|-8-8-8-8-8-8-8-8-6-6-6-6-6-6-6-6-6-6-6-6-6-6-6-6-4-4-4-4-4-4-4-4--|x4
A|-8-8-8-8-8-8-8-8-4-4-4-4-4-4-4-4-6-6-6-6-6-6-6-6-6-6-6-6-6-6-6-6--|
E|-6-6-6-6-6-6-6-6-----------------4-4-4-4-4-4-4-4------------------|


Then on to the solo.

I've tabbed the first half that Sam plays, and I'm about 75% sure about it.
The second part I started but its hard for me to distinguish all the pull offs and 
ons.
If anyone can figure it out please email me!

Solo -

Guitar 2 backs first half with chorus.

Guitar 1:
e|-/6--6---6--6---6-9-6--6--6---6-9-------6----------------|
B|-------9------9-------9-----9-----9-6-9---9-6------------|
G|----------------------------------------------6-6-8-6-8~-|
D|---------------------------------------------------------|
A|---------------------------------------------------------|
E|---------------------------------------------------------|

Then Guitar 1 starts playing the chorus while Guitar 2 finishes the solo. You definitely 
don't have to do it this way but its what The Bravery does.


Guitar 2:

e|-11~-9~-11p9p5?------------------------------------|
B|-----------------(this is where I need help)-------|
G|---------------------------------------------------|
D|---------------------------------------------------|
A|---------------------------------------------------|
E|---------------------------------------------------|


Bridge after solo:

e|---------------------|
B|---------------------|
G|---------------------|x4
D|-8----7----6----5~---|
A|-8----7----6----5~---|
E|-6----5----4----3~---|

Chorus
Guitar 1:

e|-13-13-13-13-13-13-13-13-13-13-13-13-13-13-13-13-13-13-13-13-13-13-16-16-|
B|-------------------------------------------11-11-11-11-11-11-11-11-14-14-|
G|-------------------------------------------------------------------------|
D|-------------------------------------------------------------------------|
A|-------------------------------------------------------------------------|
E|-------------------------------------------------------------------------|

e|-16-16-16-16-16-16-11-11-11-11-11-11-11-11--------------------------|
B|-14-14-14-14-14-14-9--9--9--9--9--9--9--9--11-11-11-11-11-11-11-11--|
G|-------------------------------------------8--8--8--8--8--8--8--8---|x8
D|--------------------------------------------------------------------|
A|--------------------------------------------------------------------|
E|--------------------------------------------------------------------|

Guitar 2:

e|------------------------------------------------------------------|
B|------------------------------------------------------------------|
G|-----------------6-6-6-6-6-6-6-6-----------------4-4-4-4-4-4-4-4--|
D|-8-8-8-8-8-8-8-8-6-6-6-6-6-6-6-6-6-6-6-6-6-6-6-6-4-4-4-4-4-4-4-4--|x8
A|-8-8-8-8-8-8-8-8-4-4-4-4-4-4-4-4-6-6-6-6-6-6-6-6-6-6-6-6-6-6-6-6--|
E|-6-6-6-6-6-6-6-6-----------------4-4-4-4-4-4-4-4------------------|

Outro:

Guitar 1: Keeps on playing the chorus with a few extra breaks in it, you can figure
out easy

Guitar 2:
e|--------------6------------------------------------------------|
B|-----------6-----6---------------------------------------------|
G|-----6--8-----------6---8--------------------------------------| x2
D|--8------------------------------------------------------------|
A|---------------------------------------------------------------|
E|---------------------------------------------------------------|

e|--------------6------------------------------------------------|
B|-----------6-----6---------------------------------------------|
G|-----6--8------------------------------------------------------| x2
D|--8------------------------------------------------------------|
A|---------------------------------------------------------------|
E|---------------------------------------------------------------|

e|--------------6------------------------------------------------|
B|-----------6-----6---------------------------------------------|
G|-----6--8-----------6---8--------------------------------------| x1
D|--8------------------------------------------------------------|
A|---------------------------------------------------------------|
E|---------------------------------------------------------------|


Both guitars end on:

e|-6~---|
B|-6~---|
G|-6~---|x4
D|-8~---|
A|-8~---|
E|-6~---|

Order:
Bass Intro
Refrain
Verse
Chorus
Refrain
Verse
Chorus
Solo (with chorus backing)
A Different Verse
Chorus
End

And thats what I have so far, again any help would be greatly appreciated.

Suggestions and questions can be sent to: axoneill@gmail.com

            
            
Suggest correction
Creating personal tab
Creating personal tab
You can edit any tab online and save it as your Personal.

You can edit, replace or remove any tab part or add personal notes – all changes will be seen only by you.

Personal tabs can be accessed anytime from any device, even offline.
Learn more »
comments
print report bad tab
8 comments total. Showing first comments.
0 reply
slomoeshn 10 Mar 21, 2008 08:54 AM

There are two major mistakes in this tab:

1:It is not standard tuning. The guitar is dropped down a semi-tone
Eb-Ab-Db-Gb-Bb-Eb. Thus, you would move the intro down to first position making it alot easier to play. ie. The first note is second fret on the D string and not 6 fret on the A string.


2: The chorus is a mess. It can be simplified into 4 chords

7-------10-------9--------7
7-------10-------10-------7
8-------11-------9--------9
9-------12-------11-------9
9-------12-------12-------7
7-------10-------X--------X

+2 reply
sk8rguitarman 10 Mar 26, 2008 11:27 AM

come on he just said up there its his first, and he knows its not perfect, but all in all it good

0 reply
snowboardfreak 10 Apr 29, 2008 12:24 PM

i dont know how much this will help but i might get you started. for the solo, i think that part should go

Guitar 2:

e|-11~-9~-11p9---------------------------------------|
B|--------------11p9-11------------------------------|
G|----------------------(and then all the shreding)--|
D|---------------------------------------------------|
A|---------------------------------------------------|
E|---------------------------------------------------|

p.s im new to writing tabs myself too so i dont think ill be much help. sorry

guest
You may want to rate the tab now too:
select rating
Wanna post a correction for this tab? Suggest correction