Oops, an error
Loading. Please wait.

Give In bass

571 views 3 this week
1 commentread comment
1 2 3 4 5
3 more votes to show rating
add to favorites
×
Save as Personal and add changes to this tab that will be seen only by you. Learn more ›
×
You can save this tab as Personal to edit and correct it or add notes. All changes will be seen only by you. Learn more »
launch autoscroll
font size
0
reset
guitar tuner
edit
Autoscroll
slow
fast
+/-
esc
set tempo
stop
Author
The Bravery - Give In
Tabbed by: Sam Hughes

Verse
Long rest before bass comes in.
G|------------------------------------------------------------------------------------------|
D|------------------------------------------------------------------------------------------| 
A|------------------------777777h99-7/9/7777777-999999-11-9/11------------------------------|
E|--------9/12/9-99999999-------------------------------------9-repeat----------------------|
Part A

it's very hard to hear, but listen to the song and it does something more or less like this.

Chorus

G|------------------------------99--------|-------------------------------------------------|
D|----------------------------------------|-------------------------------------------------| 
A|---------------------------7-----6---6--|-------------------------------------------------|
E|-77777777-9999999999999999---------9---7|77777777(repeat)---------------------------------|
Part B


G|------------------------------------------------------------------------------------------|
D|------------------------------------------------------------------------------------------| 
A|------------------------------------------------------------------------------------------|
E|-77777777-555555555/-99p7h99p7h99p7h99p7(straight into verse)-----------------------------|
Part C

Section before middle rest

G|-----------------9-9---------------------------|-------------------------------|
D|------------------------------777777777-|----------------------------77777777--| Part D
A|7777777777777777----999999999-----------|7777777777777777---99999999/----------|
E|-----------------------------------------------|-------------------------------|
rest...

back into chorus

You might have to listen to the song a few times to get the hang of the rhythm, and 
I may have written a couple too many or not enough of one note. But listen to the song and 
pretty sure this tab covers what you need to know.
If anythings slightly out it should be easy to rectify.

Song Directions

Rest
Part A x2
Part B x3
Part C x1
Part A x2
Part D x1
Rest
Part B x1
Part C x1
Part A x4

Finish on 9 on the E string.

            
            
Suggest correction
Creating personal tab
Creating personal tab
You can edit any tab online and save it as your Personal.

You can edit, replace or remove any tab part or add personal notes – all changes will be seen only by you.

Personal tabs can be accessed anytime from any device, even offline.
Learn more »
Give kudos to tab author, rate the tab!
1 2 3 4 5
comments
print report bad tab
1 comment total.
0 reply
Rubber 239 Jan 18, 2008 04:58 AM

Sorry, was meant to say Finish on 9 on the E string.

guest
You may want to rate the tab now too:
select rating
Wanna post a correction for this tab? Suggest correction