Oops, an error
Loading. Please wait.
We have an official Unconditional tab made by UG professional guitarists. Check out the tab »
×
1,014 views 3 this week
no commentswrite comment
1 2 3 4 5
3 more votes to show rating
add to favorites
×
Save as Personal and add changes to this tab that will be seen only by you. Learn more ›
×
You can save this tab as Personal to edit and correct it or add notes. All changes will be seen only by you. Learn more »
launch autoscroll
font size
0
reset
guitar tuner
edit
Autoscroll
slow
fast
+/-
esc
set tempo
stop
Author
Difficulty
-------------------------------------------------------------------------------
UNCONDITIONAL - The Bravery
-------------------------------------------------------------------------------

Tabbed By : 1/2Hawk
e-mail: bfhalfhawk@yahoo.com

Tuning: E A D G

This song has three main riffs to it, although each riff has an 
alternative ending playing on each last cycle thru... if you listen
carefully to the song you should follow along easy enough.

The chorus has a great spider walk across the strings although note 
that the last two notes go backwards.  I've provided an "easier" version
walking across all four strings without the reversal to practice on.

Oh, and watch out for a repeat vamping measure in 1A the first time. Enjoy!

Intro:   (0:00 ... Dont play until chimes restart)

Riff 1:  (0:08) [x4]

 G|----------------|----------------|----------------|----------------|
 D|--------------5-|5-5-5-5-5-5-5-7-|--------------5-|5-5-5-4-4-4-4-5-|
 A|7-7-7-7-7-7-7---|----------------|5-5-5-5-5-5-5---|----------------|
 E|----------------|----------------|----------------|----------------|
					 				
Riff 1A: (0:33)
                                    Repeat last measure first time only
 G|----------------|----------------|----------------|----------------|
 D|--------------5-|5-5-5-5-5-5-5-7-|----------------|----------------|
 A|7-7-7-7-7-7-7---|----------------|5-5-5-5-5-5-5-5-|7-7-7-7-7-7-7-7-|
 E|----------------|----------------|----------------|----------------|

Riff 2:  (0:41) [x2]

 G|----------------|----------------|----------------|----------------|
 D|----------------|----------------|----------------|----------------|
 A|----------------|----------------|----------------|----------------|
 E|0-0-0-0-0-0-0-0-|3-3-3-3-3-3-3-3/|8-8-8-8-8-8-8-8-|5-5-5-5-5-5-5-5-|

Riff 2A: (0:53)                                                    

 G|----------------|----------------|----------------|----------------|
 D|----------------|----------------|----------------|7-7-7-7-7-7-7-7-|
 A|----------------|----------------|----------------|----------------|
 E|0-0-0-0-0-0-0-0-|3-3-3-3-3-3-3-3/|8-8-8-8-8-8-8-8-|----------------|

Chorus:  (0:59) [x3]                      Chorus: [Alternative(Easier)]

 G|----------------|--7-9-----------|      G|--7-9--------------|-----|
 D|----------------|------7-9-5-7---|      D|------7-9----------|-----|
 A|7\--------------|--------------9-| -->  A|----------10-12----|-----|
 E|----------------|----------------|      E|----------------10-|12\--|

ChorusA: (1:08)                 

 G|----------------|----------------|
 D|5-5-5-5-5-5-5-5-|7-7-7-7-7-7-7-7-|
 A|----------------|----------------|
 E|----------------|----------------|

Riff 1: (1:12) [x3 + 1A]

Riff 2: (1:36) [x2 + 2A]

Chorus: (1:55) [x3 + CA]

Riff 1: (2:07) [x2]

Outro:  (2:20) 

 G|----------------|----------------|----------------|----------------|
 D|--------------5-|5-5-5-5-5-5-5-7-|----------------|----------------|
 A|7-7-7-7-7-7-7---|----------------|3-3-3-3-3-3-3-0-|0-0-0-0-0-0-0-0-|
 E|----------------|----------------|----------------|----------------|

 G|----------------|----------------|----------------|----------------|
 D|--------------5-|5-5-5-5-5-5-5-7-|----------------|----------------|
 A|7-7-7-7-7-7-7---|----------------|3-3-3-3-3-3-3-5-|5-5-5-5-5-5-5-5-|
 E|----------------|----------------|----------------|----------------|

 G|----------------|----------------|----------------|----------------|------|
 D|----------------|----------------|----------------|----------------|------|
 A|7---7-5-5---5-5-|3---3-2-2---2-2-|7-----5-5-----3-|3-----2-2-------|------|
 E|----------------|----------------|----------------|----------------|(0)---|

Rest:   (2:38 ... Dont play for 8 bars) 

Riff 1: (2:50) [x3 + 1A holding on A 7 in last measure]

            
            
Suggest correction
Creating personal tab
Creating personal tab
You can edit any tab online and save it as your Personal.

You can edit, replace or remove any tab part or add personal notes – all changes will be seen only by you.

Personal tabs can be accessed anytime from any device, even offline.
Learn more »
Give kudos to tab author, rate the tab!
1 2 3 4 5
comments
print report bad tab
guest
You may want to rate the tab now too:
select rating
Wanna post a correction for this tab? Suggest correction