Oops, an error
Loading. Please wait.

Rufus tab

432 views 1 this week
no commentswrite comment
1 2 3 4 5
3 more votes to show rating
add to favorites
×
Save as Personal and add changes to this tab that will be seen only by you. Learn more ›
×
You can save this tab as Personal to edit and correct it or add notes. All changes will be seen only by you. Learn more »
launch autoscroll
font size
0
reset
how to read this tab
guitar tuner
edit
Autoscroll
slow
fast
+/-
esc
set tempo
stop
Author
#----------------------------------PLEASE NOTE---------------------------------#
#This file is the author's own work and represents their interpretation of the #
#song. You may only use this file for private study, scholarship, or research. #
#------------------------------------------------------------------------------##

                                  RUFUS (Live)
                      As recorded by Psychedelic Breakfast
                         (From the 2002 Album BONAFIDE)
                          http://www.thebreakfast.org/


Gtr I (E A D G B E) - 'Untitled'
Gtr II (E A D G B E) - 'Untitled'
Gtr III (E A D G B E) - 'Untitled'

 Intro
  Q=83
 6/8                4/4         6/8
   Gtr I
    E S E.  E S E.    W           E S E.  E S E.
|--^6-8-6--^4-6-4--|-^3--------|-^3-5-3--^1-3-1--|
|--^6------^4------|-^3--------|-^3------^1------|
|--^6------^4------|-^3--------|-^3------^1------|
|--^5------^3------|-^2--------|-^2------^0------|
|--^6------^4------|-^3--------|-^3------^1------|
|------------------|-----------|-----------------|


 4/4
     |-3-|   |-3-|   |-3-|   |-3-|
   E S S S E S S S E S S S E S S S
|-^0---------------------------------|
|-^0---------------------------------|
|-^0---------------------------------|
|------------------------------------|
|-^4-2-1-2-3-3-2-3-4-4-3-4-5-5-4-5---|
|------------------------------------|


  E. S +E  E +S  E. +Q     E S S E S S E S S E S S   E S E S T T S +H
|------------------------|-------------------------|----------------------|
|----------------0--(0)--|-------------------------|----------------------|
|------------------------|-----2-----2-----2-----2-|-----4-5-4-5-4-(4)----|
|----------7-(7)---------|---2-----2-----2-----2---|----------------------|
|-6----------------------|-0-----2-----3-----5-----|-6--------------------|
|----7-(7)---------------|-------------------------|---7------------------|


                                                  |---3---|    |-3-|
  S S S S S S S S S S S S S S S S   S S E +E. T T E E T T S E. T T T
|---------------------------------|----------------------------------|
|---------------------------------|---------------4-4-1h3p1-0--0h1p0-|
|-----2-------2-------2-------2---|-----4-(4)-4-5--------------------|
|---2---2---2---2---2---2---2---2-|---4------------------------------|
|-0-------2-------3-------5-------|-6--------------------------------|
|---------------------------------|----------------------------------|


  S S S S S S S S S S S S S S E   E. S +S  S +E     +H
|-------------------------------|--------------------------|
|-------------------------------|--------------------------|
|-2-----2-4-----4-5-----5-7---7-|-8------------------------|
|-----2-------2-------2---------|----7-(7)-6-(6)b7==(6)----|
|---0-------2-------3-------5---|-6------------------------|
|-------------------------------|--------------------------|


                                                                     |-3-|
  E. S +E. S +S  E S Q    E. S E E. S E S S E   E. S S S E +S  S S S S S S E
|-7--5-(5)-5-(5)-5------|---------------------|------------------------------|
|-8--5-(5)---------5----|-7--8-5-5--6---------|--------4-----------6-4-3-----|
|-7--4-(4)-----------4--|-------------7-7-8-5-|-5--------5-(5)-----------6-5-|
|-9---------------------|---------------------|----2-3---------2-3-----------|
|-----------------------|---------------------|------------------------------|
|-----------------------|---------------------|------------------------------|


                             6/8               4/4
  +E. S S S S E S S S S S E    E S E.  E S E.    W
|---------------------------|-^6-8-6--^4-6-4--|-^3----|
|---------4-----------------|-^6------^4------|-^3----|
|-(5)-------5-6-5-------2-3-|-^6------^4------|-^3----|
|-----2-3---------6-3-6-----|-^5------^3------|-^2----|
|---------------------------|-^6------^4------|-^3----|
|---------------------------|-----------------|-------|


 6/8               4/4
   E S E.  E S E.    Q   Q   Q   Q     Q.   S S +Q   +S  S S S
|-^3-5-3--^1-3-1--|-^0--^0--^0--^0--|-^0----7-9-(9)--(9)-------|
|-^3------^1------|-^0--^0--^0--^0--|-^0-----------------7-----|
|-^3------^1------|-^0--^0--^0--^0--|-^0-------------------8---|
|-^2------^0------|-----------------|------------------------9-|
|-^3------^1------|-----------------|--------------------------|
|-----------------|-----------------|--------------------------|


   |-3-|  |--3--| |-3--| |--3--|
   E E E  E  E  E E  E E E  E  E    H    S S  S S +S  S S S
|-10----------------10--------10-|-^8-----------9-(9)-----8-|
|----8------------8----8---------|-^8----8------------8-----|
|------9-----------------9-------|-^7------9------------9---|
|--------10----10----------10----|-----------10-------------|
|-----------10-------------------|--------------------------|
|--------------------------------|--------------------------|


  S S S  S E. T T S S S  S T  T S S T  T
|-7-----------7-8-7-----------------------|
|---8---------------8---------------------|
|-----9---------------9-------------------|
|-------10-9------------10-9-10-9-7-9-10--|
|-----------------------------------------|
|-----------------------------------------|


  |---3---|
  E E T T S H    +E  S S   S S S S S S S S S S S S S S S S
|------------------------|-------------5-7-8-7-5-----------|
|------------------------|-----------5-----------5---------|
|------------------------|-------4-5---------------5-4---5-|
|-9----------------------|-----------------------------7---|
|---9-7h9p7p6----(6)-----|---2-3---------------------------|
|--------------------5-4-|-5-------------------------------|


  |-3-|
  S S S S S H.        E.  S +Q   S  S S S  S  S S S
|-------------------|-7--^5-(5)-12--------12--------|
|-------------------|-8--^5-(5)----10--------10-----|
|-4h5p4-------------|-7--^4-(4)-------9---------9---|
|-------4-----------|-9-----------------9---------9-|
|---------7-6-------|-------------------------------|
|-------------------|-------------------------------|


  E. T T E E. T T E S T T S +S
|-------------------------------|
|-7--8-7-5-5--6-5---------------|
|-----------------7-7-8-7-5-(5)-|
|-------------------------------|
|-------------------------------|
|-------------------------------|


                                                            6/8
                       |-3-|
  E. S S S E +S  S S S S S S E   +E. S S S S E S S S S S E    E S E.  E S E.
|------------------------------|---------------------------|-^6-8-6--^4-6-4---|
|--------4-----------6-4-3-----|---------4-----------------|-^6------^4-------|
|-5--------5-(5)-----------6-5-|-(5)-------5-6-5-------2-3-|-^6------^4-------|
|----2-3---------2-3-----------|-----2-3---------6-3-6-----|-^5------^3-------|
|------------------------------|---------------------------|-^6------^4-------|
|------------------------------|---------------------------|------------------|


 4/4                                6/8
         |-3-| |-3-| |-3-| |-3-|
   Q  E  S S S S S S S S S S S S E    E S E.  E S E.
|-^3-------------------------------|-^3-5-3--^1-3-1--|
|-^3--3--3-3-3-3-3-3-3-3-3-3-3-3-3-|-^3------^1------|
|-^3-------------------------------|-^3------^1------|
|-^2-------------------------------|-^2------^0------|
|-^3-------------------------------|-^3------^1------|
|----------------------------------|-----------------|


 4/4
     |----6----|  |----6----| |----6----|
  Q  S S S S S S  S S S S S S S S S S S S
|-0---------------------------------------|
|-0--4h5-5-5-5-5--5-5-5-5-3-------------3-|
|-0-------------------------5-4-4-4-4-5---|
|-----------------------------------------|
|-----------------------------------------|
|-----------------------------------------|


  |----6----| |----6----| |----6----| |----6----|
  S S S S S S S S S S S S S S S S S S S S S S S S
|-------------------------------------------------|
|-----------3-----------3-----------3-----------3-|
|-4-4-4-4-5---4-4-4-4-5---4-4-4-4-5---4-4-4-4-5---|
|-------------------------------------------------|
|-------------------------------------------------|
|-------------------------------------------------|


           |----6----| |-----6-----|
  Q.   S S S S S S S S S S S T T S S
|------------------------5-7-5h7p5----|
|-5----------------5-7-8-----------8--|
|------5-4---4-5-7--------------------|
|----------7--------------------------|
|-------------------------------------|
|-------------------------------------|


  E. T T Q.   T T T T E S S   S S S S +S  S S S S S E S E S
|-7-------------------------|-------------------------------|
|----7-5-7----7-8-7-5-4-5-7-|-8-5---------5-----------------|
|---------------------------|-----5-4-(4)---4-2-4-2---------|
|---------------------------|-----------------------5-5-4-4-|
|---------------------------|-------------------------------|
|---------------------------|-------------------------------|


  E. S +S  E E S S S S S S S   S S S S S S S S S S S S S E S
|----------------------------|-------------------------------|
|-4--------------4---4---4---|-4---4---4---4---4---4---4---4-|
|----4-(4)-5-4-----4---5---4-|---2---4---5---4---2---4---5---|
|--------------4-------------|-------------------------------|
|----------------------------|-------------------------------|
|----------------------------|-------------------------------|


 4/4
  +S  S S S S S S S +Q   Q    S. T T T S +E.  E      S  S  S  Q
|---------------------------|-7--x-x-x-5-(5)-12b14--12-----------|
|-(4)-----------------------|-8--x-x-x-5-(5)-----------10-11-12--|
|-----4---------------------|-7--x-x-x-4-(4)---------------------|
|-------4-2-1------------4--|-9----------------------------------|
|-------------2-4-2-(2)-----|------------------------------------|
|---------------------------|------------------------------------|


  E. T T T T S E. T T T T S S T T T T +S    E. S S S E +S  S S S T T T T E
|-----------------------------------------|----------------------------------|
|-7--8-7-5-----5--6-5---------------------|--------4-----------6-4-3---------|
|----------7-4--------7-5---7-8-7-5-------|-5--------5-(5)-----------6-3-5---|
|-------------------------7---------8-(8)-|----2-3---------2-3---------------|
|-----------------------------------------|----------------------------------|
|-----------------------------------------|----------------------------------|


  +E  T T T T T T T T T T T T T T T T T T T T T T T T T T T T
|-------------------------------------------------------------|
|-----------------------------------------------6-------6-8-9-|
|-(5)-6-5-------------------------5---6-5---5-8---5-6-8-------|
|---------6-------6---8-6---6-7-8---8-----8-------------------|
|-----------8-7-8---8-----8-----------------------------------|
|-------------------------------------------------------------|


 3/4
   E S E.  E S E  S
|-^6-8-6--^4-6-4----|
|-^6------^4-----/8-|
|-^6------^4--------|
|-^5------^3--------|
|-^6------^4--------|
|-------------------|


 4/4
  |----3-----| |-----3------|  |-----3------|  |----3-----|
  S S S  S S S S S S  S S T T  S S S  S S T T  S S S  S S S
|-7-8-9-10-6-7-----------------------------------------------|
|--------------8----------------------------------------7-8--|
|----------------7----------------------7h9p7----7-9-10------|
|------------------9----7h9p7----7-9-10-------10-------------|
|--------------------10-------10-----------------------------|
|------------------------------------------------------------|


  E  S  S E E S S E E. T T
|-8-11-10-8-6-9-8-6-7--7-5-|
|-8---------6--------------|
|-8---------6--------------|
|-7---------5--------------|
|--------------------------|
|--------------------------|


  T T T T T T T T T T T T T T T T T T S S S T T T T T T T T
|-------5-7-5-------5-7-5-------5-7-5---7-8-7-4-------4-7-4-|
|-8-5-8-------8-5-8-------8-5-8-------8---------7-4-7-------|
|-----------------------------------------------------------|
|-----------------------------------------------------------|
|-----------------------------------------------------------|
|-----------------------------------------------------------|


  T T T T T T T T T T T T T T T T T T S S S T T T T T T T T
|-------4-7-4-------4-7-4-------4-7-4---7-7-8-5-------5-8-5-|
|-7-4-7-------7-4-7-------7-4-7-------7---------8-5-8-------|
|-----------------------------------------------------------|
|-----------------------------------------------------------|
|-----------------------------------------------------------|
|-----------------------------------------------------------|


  T T T T T T T T T T T T T T T T T T T T T T T T T T T T T T T T
|-------5-8-5-------5-8-5-------5-8-5---5-8-5---5-7-4-------4-7-4-|
|-8-5-8-------8-5-8-------8-5-8-------8-------8-------7-4-7-------|
|-----------------------------------------------------------------|
|-----------------------------------------------------------------|
|-----------------------------------------------------------------|
|-----------------------------------------------------------------|


  T T T T T T T T T T T T T T T T T T T T E  T T  T T  T T  T T
|-------4-7-4-------4-7-4-------4-7-4---4-7-12-8---------8-12-8-|
|-7-4-7-------7-4-7-------7-4-7-------7----------10-8-10--------|
|---------------------------------------------------------------|
|---------------------------------------------------------------|
|---------------------------------------------------------------|
|---------------------------------------------------------------|


   T T  T T  T T  T T  T T  T T  T T  T T  T T  T T  T T  S  T T T T T T  T T
|-12-8---------8-12-8---------8-12-8---------8-12-8---------11-7-------7-11-7--|
|------10-8-10--------10-8-10--------10-8-10--------10-8-10------9-7-9---------|
|------------------------------------------------------------------------------|
|------------------------------------------------------------------------------|
|------------------------------------------------------------------------------|
|------------------------------------------------------------------------------|


  T T T T  T T T T T T  T T T T T T  T T T T  T T T T  T T  T T  T T  T T
|-------7-11-7-------7-11-7-------7-11-7---7-11-7---7-12-8---------8-12-8-|
|-9-7-9--------9-7-9--------9-7-9--------9--------9--------10-8-10--------|
|-------------------------------------------------------------------------|
|-------------------------------------------------------------------------|
|-------------------------------------------------------------------------|
|-------------------------------------------------------------------------|


   T T  T T  T T  T T  T T  T T  T T  T T  T T  T T  E  S  T  S  T  S
|---------8-12-8---------8-12-8---------8-12-8----8-12-14----14----14-|
|-10-8-10--------10-8-10--------10-8-10--------10---------12----12----|
|---------------------------------------------------------------------|
|---------------------------------------------------------------------|
|---------------------------------------------------------------------|
|---------------------------------------------------------------------|


 3/4
   T  S  T  S  S  S  T  S  T  T  T  T  S  E  +T
|----14----14-14-14----14----14s19-19-19-19-(19)-|
|-12----12----------12----12---------------------|
|------------------------------------------------|
|------------------------------------------------|
|------------------------------------------------|
|------------------------------------------------|


 4/4
   E.  S +E.  E     S  S  S  Q
|-^7--^5-(5)-12b14-12-----------|
|-^8--^5-(5)----------10-11-12--|
|-^7--^4-(4)--------------------|
|-^9----------------------------|
|-------------------------------|
|-------------------------------|


  E. S E E. S E S S E   E. S E E. S E S S E
|---------------------|---------------------|
|-7--8-5-5--6---------|---------------------|
|-------------7-7-8-5-|-5--6----------------|
|---------------------|------8-8--9-6-6-7---|
|---------------------|-------------------9-|
|---------------------|---------------------|


  S E  S  E  E  +S   S  S  S  S  S  S  S
|----------------------------------------|
|-----------10-(10)-10-10-10-10-10-10-10-|
|------------9--(9)--9--9--9--9--9--9--9-|
|-9-9-11-11--7--(7)--7--7--7--7--7--7--7-|
|-7-7--9--9------------------------------|
|----------------------------------------|


  S E  S  E  E  +S   S  S  S  S  S  S  S
|----------------------------------------|
|-----------12-(12)-12-12-12-12-12-12-12-|
|-----------11-(11)-11-11-11-11-11-11-11-|
|-9-9-11-11--9--(9)--9--9--9--9--9--9--9-|
|-7-7--9--9------------------------------|
|----------------------------------------|


   H.      +E. S   Q..   S H       H.      +E.  T   T
|----------------|--------------|----------------------|
|-^2-------(2)---|--------------|-^4-------(4)---------|
|-^2-------(2)---|---------2----|-^4-------(4)-(4)-(4)-|
|-^2-------(2)---|-------2------|-^4-------(4)-(4)-(4)-|
|-^0-------(0)---|-0------------|-^2-------(2)-(2)-(2)-|
|-^0-------(0)-0-|--------------|-^2-------(2)--2---0--|


   H     Q  Q     H    S S S S +E. S   S S S S S S S S S S S S S E.
|--------7--8--|-!5----7-----------7-|-----7-----7-----7-----7-------|
|--------7--8--|-!5------5-----------|-5-----5-----5-----5-----5-----|
|-(4)----------|-!6--------6---------|---6-----6-----6-----6-----6---|
|-(4)----------|-!7----------7-(7)---|-------------------------------|
|-(2)----------|-!7------------------|-------------------------------|
|--2-----------|-!5------------------|-------------------------------|


                                 Verse
       |-3-| |-3-|
  H    E E E E E E   W            E e E e E e E e   E e e e E e E e  6x
|-7----------------|-7--------||----7---7---7---7-|---7---7---7---7--||
|-7----------------|-7--------||o---7---7---7---7-|---5---5---5---5-o||
|-8------8---9---8-|-8--------||----8---8---8---8-|---6---6---6---6--||
|-9----9---9---9---|-9--------||------------------|------------------||
|-9----------------|----------||o-----------------|-----------------o||
|-7----------------|----------||------------------|------------------||


  E e E e E e E e   S S  E  S  S S  S H      E e E e E e E e
|---7---7---7---7-|--------11-10-9---------|---7---7---7---7-|
|---7---7---7---7-|----------------12------|---7---7---7---7-|
|---8---8---8---8-|---8-11-----------------|---8---8---8---8-|
|-----------------|-9----------------------|-----------------|
|-----------------|------------------------|-----------------|
|-----------------|------------------------|-----------------|


   Pre-Chorus
    E S E S S S E S E S S S   E S E S S S E S E S S S
||--------------------------|---------------------------||
||o-4-4-4-4-4-4-5-5-5-5-5-5-|-4-4-4-4-4-4-5-5-5-5-5-5--o||
||--4-4-4-4-4-4-5-5-5-5-5-5-|-4-4-4-4-4-4-5-5-5-5-5-5---||
||--4-4-4-4-4-4-5-5-5-5-5-5-|-4-4-4-4-4-4-5-5-5-5-5-5---||
||o-2-2-2-2-2-2-3-3-3-3-3-3-|-2-2-2-2-2-2-3-3-3-3-3-3--o||
||--------------------------|---------------------------||


 Chorus
  Gtr II
  H    H      H    H      H    H      H    H
|-----------|-----------|-----------|-----------|
|-----------|-----------|-----------|-----------|
|-9----4----|-5---------|-----------|-----------|
|-9----4----|-5----5----|-7----2----|-9----4----|
|-7----2----|-3----5----|-7----2----|-9----4----|
|-----------|------3----|-5----0----|-7----2----|


  E. E. E. T T T T T T Q    E.  E. E. Q..      +H.      +Q
|-------------------------|------------------|----------------|
|-------------------------|------------------|----------------|
|--------------4---4-6-4--|-----------2b4====|=(2)r=====(2)---|
|-7--2--9--4-6---6--------|-7--11--9---------|----------------|
|-7--2--9-----------------|-7--11--9---------|----------------|
|-5--0--7-----------------|-5---9--7---------|----------------|


 Verse
                                                    Gtr I
                                  |-3-| |-3-| |-3-|
  E e E e E e E e   S S S S e e E S S S S S S S S S   E e E e E e E e
|---7---7---7---7-|-x-x-7-7-x-7-x-7-x-7-x-x-x-7-x-7-|-x-7---7---7---7--|
|---7---7---7---7-|-x-x-7-7-x-7-x-7-x-7-x-x-x-7-x-7-|-x-7---7---7---7--|
|---8---8---8---8-|-x-x-8-8-x-8-x-8-x-8-x-x-x-8-x-8-|-x-8---8---8---8--|
|-----------------|---------------------------------|------------------|
|-----------------|---------------------------------|------------------|
|-----------------|---------------------------------|------------------|


    E e E e E e E e   E e e e E e E e  7x E e E e E e E e
||----7---7---7---7-|---7---7---7---7--||---7---7---7---7-|
||o---7---7---7---7-|---5---5---5---5-o||---7---7---7---7-|
||----8---8---8---8-|---6---6---6---6--||---8---8---8---8-|
||------------------|------------------||-----------------|
||o-----------------|-----------------o||-----------------|
||------------------|------------------||-----------------|


   Pre-Chorus
    E S E S S S E S E S S S   E S E S S S E S E S S S
||--------------------------|---------------------------||
||o-4-4-4-4-4-4-5-5-5-5-5-5-|-4-4-4-4-4-4-5-5-5-5-5-5--o||
||--4-4-4-4-4-4-5-5-5-5-5-5-|-4-4-4-4-4-4-5-5-5-5-5-5---||
||--4-4-4-4-4-4-5-5-5-5-5-5-|-4-4-4-4-4-4-5-5-5-5-5-5---||
||o-2-2-2-2-2-2-3-3-3-3-3-3-|-2-2-2-2-2-2-3-3-3-3-3-3--o||
||--------------------------|---------------------------||


 Chorus
  Gtr II
  H    H      H    H      H    H      H    H
|-----------|-----------|-----------|-----------|
|-----------|-----------|-----------|-----------|
|-9----4----|-5---------|-----------|-----------|
|-9----4----|-5----5----|-7----2----|-9----4----|
|-7----2----|-3----5----|-7----2----|-9----4----|
|-----------|------3----|-5----0----|-7----2----|


  E. E. E. T T T T T T Q    E.  E. Q.   S T  T S  S
|-------------------------|-------------------------|
|-------------------------|-------------------------|
|--------------4---4-6-4--|--------------------9-11-|
|-7--2--9--4-6---6--------|-7--11--9------9-11------|
|-7--2--9-----------------|-7--11--9----------------|
|-5--0--7-----------------|-5---9--7----------------|


 Guitar Solo
          |----3----|    |-3--|
   Q      E     +E  E Q  E E  E
|-------------------------------|
|-------------------------------|
|-11b13--11b13r(11)-9-8--8-9-10-|
|-------------------------------|
|-------------------------------|
|-------------------------------|


  |-3-| |----3----|    |-3-|
  E E E E  E T  T S Q  E E E   E. S +S  T T T S. E. S +S  T  T T  T T  T
|----------------------------|-------------------------------------------|
|-8-8-8-8--------------------|-------------------------------------------|
|---------11-9-11-9-7--7-6-7-|-9--9-(9)-8-9-8-6--------------------------|
|----------------------------|-------------------9--9-(9)------9-11-9----|
|----------------------------|----------------------------9-11--------11-|
|----------------------------|-------------------------------------------|


                     |-3--| |--3--|
  T  T T T T  T T T  S S  S S  S  S T  T T  T  T T  T  T  T T  T T  T  T  T  T
|--------------------------------------------------------11-9----9-11-12-14-15---|
|----------------------9----9----10-9----9-10-12-9-10-12------12-----------------|
|------8-9-8----8-9-11---11---11------11-----------------------------------------|
|-9-11-------11------------------------------------------------------------------|
|--------------------------------------------------------------------------------|
|--------------------------------------------------------------------------------|


             |--3--|            |--3--|    |--3--|  |-----3-----|         |--3--|
   E.  T  T  E  E  E  E.  T  T  E  E  E    E  E  E  E  T  T  S  E  Q   a  E  E  E
|-16--16-16-16-14-12-----------------14-|-15-15-15-15-14-15-14-12-----------------|
|--------------------16--16-16-16-17----|-------------------------15--14h15-14-15-|
|---------------------------------------|-----------------------------------------|
|---------------------------------------|-----------------------------------------|
|---------------------------------------|-----------------------------------------|
|---------------------------------------|-----------------------------------------|


              |--3---|
   E.  a  S  +E   E  E  E.  S  +S   T  T  T  T  T  T
|-12--11h12-(12)-11-----------------------------------|
|-------------------14-12--12-(12)-------12-14-12-----|
|----------------------------------11-13----------13--|
|-----------------------------------------------------|
|-----------------------------------------------------|
|-----------------------------------------------------|


                              Chorus
   S  S  S  E  S E S E S E E   H    H      H    H
|----------------------------|-----------|-----------|
|-12-12-12-10-10-9-9-7-7-5-4-|-----------|-----------|
|----------------------------|-9----4----|-5---------|
|----------------------------|-9----4----|-5----5----|
|----------------------------|-7----2----|-3----5----|
|----------------------------|-----------|------3----|


  H    H      H    H      E. E. E. T T T T T T Q
|-----------|-----------|-------------------------|
|-----------|-----------|-------------------------|
|-----------|-----------|--------------4---4-6-4--|
|-7----2----|-9----4----|-7--2--9--4-6---6--------|
|-7----2----|-9----4----|-7--2--9-----------------|
|-5----0----|-7----2----|-5--0--7-----------------|


                       Q=86
                       ~~~~~~~~~~~~~~~
                                        |-3--| |-3-|
  E.  E. Q +E  E. S    W          +Q   +E  E E E E E E E
|-------------------||----------|--------------------------|
|-------------------||----------|--------------------------|
|-------------------||----------|----------------4---------|
|-7--11--9-(9)-4--4-||-4--------|-(4)--(4)-4-6-7---6-------|
|-7--11--9-(9)------||----------|--------------------7-4---|
|-5---9--7-(7)------||----------|--------------------------|


                                   |-3--| |-3-|
  +E. S +S  T T E +H       +H     +E  E E E E E   S E.  +E  T T T T +H
|------------------------|----------------------|--------------------------|
|------------------------|----------------------|--------------------------|
|------------------------|------------------4---|--------------------------|
|-----4-(4)-4-6-4-(4)----|-(4)----(4)-4-6-7---6-|--------------------------|
|-(4)--------------------|----------------------|-7-4---(4)-4-6-4-2-(2)----|
|------------------------|----------------------|--------------------------|


  +Q     +S  E E E S  +S  S S S
|-------------------------------|
|-------------------------------|
|-------------------------------|
|--------------4----------6-4-7-|
|-(2)----(2)-2---4-6--(6)-------|
|-------------------------------|


  S S S S S E E E S   S +S  +S     +S    +Q    +T  T T T T S. +H
|--------------------------------------|-----------------------------|
|-----------------7s==9-(9)-(9)b11r(9)-|-(9)---(9)-7-9-7-6-7--(7)----|
|-------6---8-9-6----------------------|-----------------------------|
|-6-9-7---9----------------------------|-----------------------------|
|--------------------------------------|-----------------------------|
|--------------------------------------|-----------------------------|


                                             |-3--|
  +W           +Q  +S   E      +S  S  S  S S S S  S S  S
|------------|---------11pb12r(11)-9---------------------|
|-(7)--------|-(7)-(7)---------------10-------------9-10-|
|------------|--------------------------11-9-8-9-11------|
|------------|-------------------------------------------|
|------------|-------------------------------------------|
|------------|-------------------------------------------|


                                          |-3--| |-3-|
   S     +S   +S      +S   +E   S S  S  E T  T T E E E
|-------------------------------------------------------|
|-12b14r(12)-(12)b14-(12)r(12)-10-9-10----9-10-9---9-7--|
|--------------------------------------11--------9------|
|-------------------------------------------------------|
|-------------------------------------------------------|
|-------------------------------------------------------|


  |--3--|
  E  E  E  E  S S +H    +E.  S  S  S  S  S  a  E  E  S  T  T  S  S
|---------------------|--------------14-16-16h17-16-14-16-14-13-14-|
|---------------------|-----------14-------------------------------|
|------11-------------|-----13-14----------------------------------|
|-9-11----11----------|--------------------------------------------|
|------------12-9-(9)-|-(9)----------------------------------------|
|---------------------|--------------------------------------------|


  S  e  S  S  e  S  S  e  S  S  e  S
|--------------------------------------|
|---14-13-14---------------------------|
|------------14-13-14-11-10-11---------|
|------------------------------11-10---|
|--------------------------------------|
|--------------------------------------|


     |3-|            |3-|              |3|
   E E  S S  S  E  E E  S S  S  E    E E S S  S E +Q.    S. T
|---------------------------------|---------------------------|
|--------------10--------------10-|---------------------------|
|----9----9-11----11-9----9-11----|-11----------------------9-|
|-11---11--------------11---------|----9-7-9-11-9-(9)---11----|
|---------------------------------|---------------------------|
|---------------------------------|---------------------------|


     |3-|            |3-|
   E E  S S  S  E  E E  S S  S  E
|-----------------------------------|
|--------------10--------------10---|
|-11-9----9-11----11-9----9-11------|
|------11--------------11-----------|
|-----------------------------------|
|-----------------------------------|


     |3-|
   E E  S  E  E  T T  S  E +Q    +Q  S E S +S  S T T S S S S S
|------------------------------|-------------------------------|
|---------12-10----------------|-------------------------------|
|-11-9-11-------11-9-----------|---------------------------6-8-|
|--------------------11--9-(9)-|-(9)-7-9-9-(9)-7-------7-9-----|
|------------------------------|-----------------9-7-9---------|
|------------------------------|-------------------------------|


  Q=83(16=s16)
  S S S S S S S S S S S S S S T T T T
|----------------------------------------|
|----------------------------------------|
|-9-8-6-9-8-6---8-6-----6----------------|
|-------------9-----9-7---9-7-6----------|
|-------------------------------9-7-9----|
|----------------------------------------|


  Q=83
  E. S E. S H      +E   T  T  S  T  T  S S  T  T  S S  T  T  S S  T  T  S S
|---------5------|-----14-13-14---------------------------------------------|
|------7----7----|-(7)----------14-13-14------------------------------------|
|----6-----------|-------------------------14-13-14---11-10-11--------------|
|-7--------------|-----------------------------------------------11-10-11---|
|----------------|----------------------------------------------------------|
|----------------|----------------------------------------------------------|


   T  T  S S  T  T   H   T  T  T  T  T  T  T  T
|--------------------------------------------------|
|--------------------------------------------------|
|--------------------------------------------------|
|-----------------------------------11-------------|
|-12-11-12-----------------11-12-14----12-14-15----|
|------------14-13--14--14-------------------------|


   T  T  T  T  T  T  T  T  T  T  T  T  T  T  T  T  E  E  E  E
|-------------------------------------------------12-11-------|
|----------------------------------------12-14-16-------14-12-|
|-------11----------11-13-14-13-11-13-14----------------------|
|-11-14----11-14-15-------------------------------------------|
|-------------------------------------------------------------|
|-------------------------------------------------------------|


                   |-----3-----|
   E     +E   E E  E  +E      +E   +S  T  T T  T  S
|----------------------------------------------------|
|-12b14r(12)-10-9-10-(10)b12r(10)-(10)-9-10-9--------|
|---------------------------------------------11-10--|
|----------------------------------------------------|
|----------------------------------------------------|
|----------------------------------------------------|


   |----5----|  |----5----| |--5--|
   S S  S S  S  S  S  S S S S S S E +E  T T S   E. E E E E E E S   H.  Q
|---------9-12-11-----------------------------|------------------|----------|
|----9-10---------12--------------------------|------------------|----------|
|-11-----------------11-9-8-------------------|------------------|----------|
|---------------------------9-----------------|------------------|-----3----|
|-----------------------------9-7-6-(6)-6-7-6-|-4--6-7-----------|----------|
|---------------------------------------------|--------7-5-4-2-0-|-2--------|


  +H.        E +E      +Q      E   E +S  S S S   Q
|--------------------|--------------------------------|
|------------5-(5)b7-|-(5)pb7--5b7r5-(5)-4-5-5b6-5b7--|
|--------------------|--------------------------------|
|-(3)b4--------------|--------------------------------|
|--------------------|--------------------------------|
|--------------------|--------------------------------|


  |------3------| |-----3-----| |-----3-----| |----3----|
  S S S S   +S  S S S S S T T S S S   S S S S S S S S S S
|-----------------------------------------------------------|
|-2---2-----------------------2-5-----2---------------------|
|---4---4b6r(4)-2---4---2-4-5-----4b6---4-2-4-2---4---2-----|
|-----------------4---4-------------------------4---4---4---|
|-----------------------------------------------------------|
|-----------------------------------------------------------|


  |----3----| |----3----| |----3----| |----3----|
  S S S S S S S S S S S S S S S S S S S S S S S S   Q.   S S Q.   S S
|-------------------------------------------------|---------------------|
|-------------------------------------------------|---------------------|
|-------------------------------------------------|---------------------|
|-2-----------------------------------------------|---------------6-7---|
|---4-2-0-2-0-2-0-2-0-2-0-2-0-2-0-2-0-2-0-2-0-2-0-|-4----4-6-7----------|
|-------------------------------------------------|---------------------|


  S T T S S S S S S E.. T S S S S
|---------------------------------|
|---------------------------------|
|-----------------6-------------6-|
|-6-7-6-4-2-4-6-4---4---2-4-2-4---|
|---------------------------------|
|---------------------------------|


  E E S S S S S S E S S S S   S S E S S S S Q  S. T T T S
|---------------------------|-----------------------------|
|---------------------------|---------------------------5-|
|-----------6-------------6-|-------------6----6--4-6-8---|
|-4---4-2-4---4-4---4-2-4---|-4-4---4-2-4---4-------------|
|---7-------------7---------|-----7-----------------------|
|---------------------------|-----------------------------|


  +S  T S T S +Q.   T T T T S. T T T S
|--------------------------------------|
|-(5)-----------------------5----------|
|-----8-6-4-6-(6)---6-4-6-8----8-6-4-6-|
|--------------------------------------|
|--------------------------------------|
|--------------------------------------|


  +S  S. T S +S  S. T S +S  T T S T T S T T S T T
|--------------------------------------------------|
|--------------------------------------------------|
|-(6)-4--2-4-(4)-2--1-2-(2)-1---1------------------|
|-----------------------------4---4-2-4-2-1-2-1----|
|-----------------------------------------------4--|
|--------------------------------------------------|


                      |-3-| |-3-|
  T T T T T T S +Q. E S S S S S S
|---------------------------------|
|---------------------------------|
|---------------------------------|
|-2-1---1-------------------------|
|-----4---4-2-0-(0)-------4-6---4-|
|-------------------4-5-7-----7---|


  |-3-|         |-3-| |-3-| |-3-|             |-3--|
  S S S T T T T S S S S S S S S S T T T T T T S S  S S
|--------------------------------------------------------|
|--------------------------------------------------------|
|--------------------------------------------------------|
|-----4-4-6-4---4-5-6-5-6-7-6-7-8-6-7-8-7-8-9-8-9-10-9---|
|-6-7---------7------------------------------------------|
|--------------------------------------------------------|


   |-3--|     |--3--|    |--3--|     |--3--|           |--3--|
   S  S S  S  S  S  S  S S  S  S  S  S  S  S  S  S  S  S  S  S
|--------------------------------------------------------------|
|--------------------------------------------------------------|
|--------------------------------------------------------------|
|-10-11-9-10-11-12-13-14-9-10-11-10-11-12-11-12-13-11-12-13-14-|
|--------------------------------------------------------------|
|--------------------------------------------------------------|


   H     S     S  S  S  E S  S
|--------------------------------|
|--------------------------------|
|-11----11b13r11-----------------|
|----------------13-12-11-9-11---|
|--------------------------------|
|--------------------------------|


   E  E Q.    E     T  T  T  T T  T  T T
|----------------------------------------|
|----------------------------------------|
|------------11b13-11--------------------|
|---------------------13-12-11-9-13-11-9-|
|-12-11-9--------------------------------|
|----------------------------------------|


   T  T T  T T  T  T T T  T T  T T T  S  +Q    S     +E   T  T
|---------------------------------------------------------------|
|----------------------------------9----------14b16r(14)-12-14--|
|---------------------------8-11-8---11-(11)--------------------|
|-------9-11-9-12-11-9-9-11-------------------------------------|
|-11-12---------------------------------------------------------|
|---------------------------------------------------------------|


   E.  T  T  H     T  T  T  T  T  T  T  T
|-----------------------------------------|
|-12--------------------------------------|
|-----13-12-11-------------11-13-11-------|
|-----------------11-12-13----------13-12-|
|-----------------------------------------|
|-----------------------------------------|


   T  T  T  T  T  T  T  T  T  T  T  T  T  T  T  T  T  T  T  T  T  T  T  T  T  T  T  T  T  T  T  T
|---------------------------------------------------------------------------------------------------|
|---------------------------------------------------------------------------------------------------|
|-------------------------------------------------------11----13-11---------------------------------|
|-11----13-11-------------11-------11-13-11----11-13-14----13-------13-12-11----13-11---------------|
|----14-------14-11-12-14----12-14----------14-------------------------------14-------14-12-11-12---|
|---------------------------------------------------------------------------------------------------|


            |---3----|  |---3----|  |--3--|
   T  E..  +E   +E   E  E  E  S  S  E  E  E
|-------------------------------------------|
|-------------------------------------------|
|-------------------------------11-13-------|
|-11-------------------11-13-14-------14-11-|
|----12---(12)-(12)-11----------------------|
|-------------------------------------------|


         |--3--|  |--3--|  |--3--|  |--3--|  |--3--|
   Q.    S  S  S  S  S  S  S  S  S  S  S  S  S  S  S
|-----------------------------------------------------|
|-----------------------------------------------------|
|-------------------------13----------------13--------|
|-13----------13-------13----13----------13----13-----|
|-------11-12----11-12----------12-11-12----------12--|
|-----------------------------------------------------|


   S  T  T S S +Q.   T  T  T  T  T  T  T  T  T  T  T  T
|-------------------------------------------------------|
|-------------------------------------------------------|
|----------------------------------------------11-13-11-|
|----------------------------11-13-11----11-13----------|
|-11-12-11-9-9-(9)--11-12-14----------14----------------|
|-------------------------------------------------------|


   T  T  T  T  T  T  T  T  T  T  T  T  T  T  T  T  T  T  T  T  T  T  T  T  T  T  +E.
|-------------------------------------------------11------------------------------------|
|----------------------------------------12-14-12----14-12----14-12----12---------------|
|-14-13-11----13-11-------------11-12-13-------------------13-------13----13-14-(14)----|
|----------14-------13-11-12-13---------------------------------------------------------|
|---------------------------------------------------------------------------------------|
|---------------------------------------------------------------------------------------|


              |---3----|  |--3--|  |--3--|
   +E   S  S  E  E  S  S  E  E  E  E  E  E
|---------------14----------------------------|
|---------16-17----16-17-16----------14-14b16-|
|-(14)-14-------------------16-14-16----------|
|---------------------------------------------|
|---------------------------------------------|
|---------------------------------------------|


   |----3-----|  |--3--|
   E     +E   E  E  E  E  S  T  T  S  S  E. S
|-------------------------------------------9--|
|-14b16r(14)-----------------------------------|
|------------16-14-16-13-13-14-13-11-10-11-----|
|----------------------------------------------|
|----------------------------------------------|
|----------------------------------------------|


   S  S  S  S  +E. e  e  s  +Q      +E.  T  T  S  S S  S S  S  E  +S   S S  S
|----11----12-(12)-9-11-12-(12)--|-(12)-14-16-14--------------14-(14)---------|
|--------------------------------|---------------17---16---17------------9-12-|
|-11----11-----------------------|------------------------------------11------|
|--------------------------------|--------------------------------------------|
|--------------------------------|--------------------------------------------|
|--------------------------------|--------------------------------------------|


  s  e  s  +Q   s  e  s  +Q
|-9-11-12-(12)--9-11-12-(12)--|
|-----------------------------|
|-----------------------------|
|-----------------------------|
|-----------------------------|
|-----------------------------|


   +S   T  T  S  S  +S   T  T  T  T  T  T  T  T  T  T  T  T  T  T  S  T  T  T  T  T  T
|-(12)----------19-(19)-16-19-16--------------------------------------------------------|
|------19-17-19------------------19-17----19----17-19-17--------------------------------|
|--------------------------------------18----18----------18-16----18----16-18-16--------|
|--------------------------------------------------------------18----18----------18-16--|
|---------------------------------------------------------------------------------------|
|---------------------------------------------------------------------------------------|


                                                       |-3--|
   +E.  S  E.  S  E.  S  S  S  S  S    E  S S  S  S  S T  T T  E. S  S S  S  a  S
|-----------------------------------|---------------------------------------------|
|-----------------------------------|---------------------------------------------|
|--------------------------------13-|-11-11-9-11-11-11-9-11-9----------9-11-11s13-|
|-(16)-14-16--14-----------14-16----|-------------------------11--9-11------------|
|----------------16--14-16----------|---------------------------------------------|
|-----------------------------------|---------------------------------------------|


                |-3--|
   S  E S  S  S T  T T  T T  S.  S. S +E   T T  T  T
|-----------------------------------------------------|
|-----------------------------------------------------|
|-11-11-9-11-11-9-11-9--------------9-(9)-------------|
|----------------------11-9-11--11--------11-9--------|
|----------------------------------------------11-10--|
|-----------------------------------------------------|


  T  T T  T  T T  T T  T  T T  T  T T  T T  T  T T  T  T T  T T  T  T T  T  T T  T T
|------------------------------------------------------------------------------------|
|------------------------------------------------------------------------------------|
|------------------------------------------------------------------------------------|
|------9----11-9------------9----11-9------------9----11-9------------9----11-9------|
|-9-11---11------11-9-10-11---11------11-9-10-11---11------11-9-10-11---11------11-9-|
|------------------------------------------------------------------------------------|


   T  T T  T  T T  T T  T  T T  T  T T  T T  T  T T  T  T T  T T  T  T T  T  T T  T T
|-------------------------------------------------------------------------------------|
|-------------------------------------------------------------------------------------|
|-------------------------------------------------------------------------------------|
|-------9----11-9------------9----11-9------------9----11-9------------9----11-9------|
|-11-12---12------12-9-11-12---12------12-9-11-12---12------12-9-11-12---12------12-9-|
|-------------------------------------------------------------------------------------|


  T  T T  T  T T  T T  T  T T  T  T T  T T  T  T T  T  T T  T T  T  T T  T  T T  T T
|------------------------------------------------------------------------------------|
|------------------------------------------------------------------------------------|
|------------------------------------------------------------------------------------|
|------9----11-9------------9----11-9------------9----11-9------------9----11-9------|
|-9-11---11------11-9-10-11---11------11-9-10-11---11------11-9-10-11---11------11-9-|
|------------------------------------------------------------------------------------|


Duration Legend
---------------
W - whole; H - half; Q - quarter; E - 8th; S - 16th; T - 32nd; X - 64th; a - acciaccatura
+ - note tied to previous; . - note dotted; .. - note double dotted
Uncapitalized letters represent notes that are staccato (1/2 duration)
Irregular groupings are notated above the duration line
Duration letters will always appear directly above the note/fret number it represents the
duration for.  Duration letters with no fret number below them represent rests.  Multi-
bar rests are notated in the form Wxn, where n is the number of bars to rest for.  Low
melody durations appear below the staff

Tablature Legend
----------------
 h   - hammer-on
 p   - pull-off
 b   - bend
 pb  - pre-bend
 r   - bend release (if no number after the r, then release immediately)
 /\  - slide into or out of (from/to "nowhere")
 s   - legato slide
 S   - shift slide
  - natural harmonic
[n]  - artificial harmonic
n(n) - tapped harmonic
 ~   - vibrato
 tr  - trill
 T   - tap
 TP  - trem. picking
 PM  - palm muting
\n/  - tremolo bar dip; n = amount to dip
 \n  - tremolo bar down
 n/  - tremolo bar up
/n\  - tremolo bar inverted dip
 =   - hold bend; also acts as connecting device for hammers/pulls
 <>  - volume swell (louder/softer)
 x   - on rhythm slash represents muted slash
 o   - on rhythm slash represents single note slash

Misc Legend
-----------
 |  - bar
||  - double bar
||o - repeat start
o|| - repeat end
*|  - double bar (ending)
 :  - bar (freetime)
 $  - Segno
 &  - Coda
Tempo markers -  = BPM(8/16=s8/s16), where s8 = swing 8ths, s16 = swing 16ths


***************************************************************************************
* Generated using Power Tab Editor by Brad Larsen - http://powertab.guitarnetwork.org *
***************************************************************************************

            
            
Suggest correction
Creating personal tab
Creating personal tab
You can edit any tab online and save it as your Personal.

You can edit, replace or remove any tab part or add personal notes – all changes will be seen only by you.

Personal tabs can be accessed anytime from any device, even offline.
Learn more »
Give kudos to tab author, rate the tab!
1 2 3 4 5
comments
print report bad tab
guest
You may want to rate the tab now too:
select rating
Wanna post a correction for this tab? Suggest correction