Oops, an error
Loading. Please wait.

Whoever You Are bass

4,292 views 3 this week
no commentswrite comment
1 2 3 4 5
1 last vote to show rating
add to favorites
×
Save as Personal and add changes to this tab that will be seen only by you. Learn more ›
×
You can save this tab as Personal to edit and correct it or add notes. All changes will be seen only by you. Learn more »
launch autoscroll
font size
0
reset
guitar tuner
edit
Autoscroll
slow
fast
+/-
esc
set tempo
stop
Whoever You Are Tabbed out by Prospect Hammer

G--------------------------------------------|
D---7-----5---5-7-------7-7-----5----5-7 x14-|
A-----5h7---7---------------5h7----7---------|
E-5-----------------5-5----------------------|

(Both count as 1 for what you play above)

I
Will take you
For a ride
Deep
Inside
Won't beg you
Step inside
Please

G---------------------|
D---------------------|
A-7-7-7-7-------------|
E---------10-10-10-10-|

G------------------------------------------|
D---7-----5---5-7-------7-7-----5----5-7---|
A-----5h7---7---------------5h7----7-------|  x1
E-5-----------------5-5--------------------|

G-----------------------|
D-----------------------|
A-7-7-7-7---------------|
E---------10-10-10-10-5-| (rest after the 5)

Let me take you down
To the place I'm going
More than treasures found
It's just been knowing you

G-----------------------------------------|
D---7-----5---5-7-------7-7-----5----5-7--| x8
A-----5h7---7---------------5h7----7------|
E-5-----------------5-5-------------------|

You
Can't show me
What is real
Really breathes

G---------------------|
D---------------------|
A-7-7-7-7-------------|
E---------10-10-10-10-|

G------------------------------------------|
D---7-----5---5-7-------7-7-----5----5-7---|
A-----5h7---7---------------5h7----7-------|  x1
E-5-----------------5-5--------------------|

G----------------------|
D----------------------|
A-7-7-7-7--------------|
E---------10-10-10-10--|

G------------------------------------------|
D---7-----5---5-7-------7-7-----5----5-7---|
A-----5h7---7---------------5h7----7-------|  x1
E-5-----------------5-5--------------------|

G-----------------------|
D-----------------------|
A-7-7-7-7---------------|
E---------10-10-10-10-5-| (rest)

Let me take you down
To the place I'm going
More than treasures found
It's just been knowing you
But it's getting late
I must be going

G----------------------------------------------|
D---7-----5---5-7-------7-7-----5----5-7-------| x8
A-----5h7---7---------------5h7----7-----------|
E-5-----------------5-5------------------------|5]*
*only play the last 5 at the end of the 8th one then rest.

G-------------------------------7/9-9p7-----------9p7-|
D---------5h7-5h7-5h7-------5h7--------------7p5p7----|
A-----5h7---------------5h7---------------------------|
E-5-5-----------------5------------------5-5----------|
(I'm not really sure whats played at the end yet, as i'm still trying to tab it out 
I'm pretty sure only the first one in the end is accurate. I'll update it once I finish 
it and other songs out. Although what I have above is the basic idea.)

            
            
Suggest correction
Creating personal tab
Creating personal tab
You can edit any tab online and save it as your Personal.

You can edit, replace or remove any tab part or add personal notes – all changes will be seen only by you.

Personal tabs can be accessed anytime from any device, even offline.
Learn more »
Give kudos to tab author, rate the tab!
1 2 3 4 5
comments
print report bad tab
guest
You may want to rate the tab now too:
select rating
Wanna post a correction for this tab? Suggest correction