Oops, an error
Loading. Please wait.

Jump Jive And Wail bass

version 3
version 3

Whole song

4,323 views 3 this week
no commentswrite comment
1 2 3 4 5
x 6
add to favorites
×
Save as Personal and add changes to this tab that will be seen only by you. Learn more ›
×
You can save this tab as Personal to edit and correct it or add notes. All changes will be seen only by you. Learn more »
launch autoscroll
font size
0
reset
guitar tuner
edit
Autoscroll
slow
fast
+/-
esc
set tempo
stop
Author
G|-----------------|
D|-------5-6-5-----| Pattern
A|---5-8-------8-5-|    1
E|-6---------------|

G|-------5-6-5-----|
D|---5-8-------8-5-| Pattern
A|-6---------------|    2
E|-----------------|

G|-----------------|
D|-----------------| Pattern
A|---5-6-7-8-7-5---|    3
E|-8-------------8-|

The main part is just:

Pattern 1 x 2
Pattern 2 x 2
Pattern 1 x 1
Pattern 3 x 1
Repeat throughout the whole song, basically.

After one of the verses, he plays:

G|------------|
D|------------|
A|------------|
E|-6--7--8--7-|

And then later in the song, the key shifts up a minor second, which means you just play 
up one fret. So instead of walking at the 6th fret, it'll be the 7th fret, etc. etc.

            
            
Suggest correction
Creating personal tab
Creating personal tab
You can edit any tab online and save it as your Personal.

You can edit, replace or remove any tab part or add personal notes – all changes will be seen only by you.

Personal tabs can be accessed anytime from any device, even offline.
Learn more »
comments
print report bad tab
guest
You may want to rate the tab now too:
select rating
Wanna post a correction for this tab? Suggest correction