Oops, an error
Loading. Please wait.

Knifeman tab

version 1
version 1

Whole song

4,961 views 24 this week
2 commentsread comments
1 2 3 4 5
x 3
add to favorites
×
Save as Personal and add changes to this tab that will be seen only by you. Learn more ›
×
You can save this tab as Personal to edit and correct it or add notes. All changes will be seen only by you. Learn more »
launch autoscroll
font size
0
reset
how to read this tab
guitar tuner
edit
Autoscroll
slow
fast
+/-
esc
set tempo
stop
Author
Difficulty
The Bronx - Knifeman
Tuning: Standard

Intro & Verse
e---------------------------------------------------------------------|
B---------------------------------------------------------------------|
G---------------------------------------------------------------------|         
D---------------------------------------------------------------------|
A--2-4-4-4-4-4-4-4-4-4-4-4-4-4-4-4---2-4-4-4-4-4-4-4-4-4-4-4-4-4-4-4--|
E--0-2-2-2-2-2-2-2-2-2-2-2-2-2-2-2---0-2-2-2-2-2-2-2-2-2-2-2-2-2-2-2--|

Chorus
e------------------|----------------|---------------------------------|
B------------------|----------------|------Then repeat this whole-----|
G--2~~--------2----|------2----(x2)-|------section again--------------|         
D--2~~---2~~--2----|-4-4--2-2-------|---------------------------------|
A--------2~~-------|-4-4----2-------|---------------------------------|
E------------------|-2-2------------|---------------------------------|
"Now out here the boulevard..."


Repeat the intro verse and :Out here on the boulevard" section again!!

Breakdown (Thanks chandler325i for the correction)
e------------------------------|--------------------------------------|
B------------------------------|---------------3h5--------------------|
G------------------------------|-----------2h4-----2------------------|        
D---4-4-4--------4-4-4---------|---4-4-4---2h4------------------------|
A---4-4-4--7\(2)--4-4-4--9\(4)---|---4-4-4----------------------------|
E---2-2-2--------2-2-2---------|---2-2-2------------------------------|

Play the intro & verse section again and "out here on the boulevard" sections again.

Thats it.  I'm pretty sure you'll understand this tab quite easily.  Just pay attention 
their timing.  The song was written in sections so it should be easy to figure out.

            
            
Suggest correction
Creating personal tab
Creating personal tab
You can edit any tab online and save it as your Personal.

You can edit, replace or remove any tab part or add personal notes – all changes will be seen only by you.

Personal tabs can be accessed anytime from any device, even offline.
Learn more »
Give kudos to tab author, rate the tab!
1 2 3 4 5
comments
print report bad tab
2 comments total.
+2 reply
chandler325i 31 Apr 04, 2009 05:41 PM

Pretty good overall, couple suggestions: I like to play the intro just on the E string (-0h2-2-2-2...) until the second guitar comes in, then I go to a full power chord to give it that heavier chunky sound:

2/4-4-4-4-4...
2/4-4-4-4-4...
0/2-2-2-2-2...

During the second verse, I'm think the second guitar plays this in the background:

D -2---7---4--5-4---2-----------4--5-4--
A ----------------------3---2-----------
E --------------------------------------

listen for the changes and timing, pretty easy, just fast strumming (I only typed the first note of each group)

And I think the "Breakdown" should be:

e------------------------------|--------------------------------------|
B------------------------------|---------------3h5--------------------|
G------------------------------|-----------2h4-----2------------------|
D---4-4-4--------4-4-4---------|---4-4-4---2h4------------------------|
A---4-4-4--7\(2)--4-4-4--9\(4)---|---4-4-4------------------------------|
E---2-2-2--------2-2-2---------|---2-2-2------------------------------

sounds like a slide down from those single notes that he hits, not a bend up.

+1 reply
Heinrichl 33 Apr 21, 2009 12:20 PM

Hey dude, thanks for the suggestions! Always good to get an outsiders point of view on this stuff! Good jarb!!

guest
You may want to rate the tab now too:
select rating
Wanna post a correction for this tab? Suggest correction