Oops, an error
Loading. Please wait.

Stuck In The Middle tab

2,873 views 3 this week
3 commentsread comments
1 2 3 4 5
x 5
add to favorites
×
Save as Personal and add changes to this tab that will be seen only by you. Learn more ›
×
You can save this tab as Personal to edit and correct it or add notes. All changes will be seen only by you. Learn more »
launch autoscroll
font size
0
reset
how to read this tab
guitar tuner
edit
Autoscroll
slow
fast
+/-
esc
set tempo
stop
Stuck in the Middle - The Burning Hotels
-----------------------------------------------------------------
Band url: burninghotels.net/

Tabbed by: mr.mick.d
Email: keeperkid1@gmail.com

Tuning: Eb Ab Db Gb Bb eb


    C/G      Am/F    Cmaj7/E   (*)     C       Em      
e|-- 3 ------- 5 ------ 12 ----- 0 ----- 8 ----- 0 -------------------|
B|-- 5 ------- 5 ------ 12 ----- 0 ----- 8 ----- 0 -------------------|
G|-- 5 ------- 5 ------- 9 ----- 9 ----- 9 ----- 0 -------------------|
D|-- 5 ------- 7 ------ 10 –--- 10 ----- 10 ---- 2 -------------------|
A|-- 3 ------- 8 ------- x –--- 10 ----- 10 ---- 2 -------------------|
E|-- 3 ------- x ------- x ----- 8 ----- 8 ----- 0 -------------------|
        

Intro:
*(down strum on each 1/8th note)

   C/G             Am/F             C              Cmaj7/E           
e|-----------------------------------------------------------------------|
B|-----------------------------------------------------------------------|
G|-----------------------------------------------------------------------|  X3 then
D|-5-5-5-5-5-7-7-7-3-3-3-3-3-3-3-3------------------2-2-2-2-2-2-2-2------|
A|----------------------------------3-3-3-3-3-3--------------------------|
E|----------------------------------------------3-3----------------------|

   C/G             Am/F             C              Cmaj7/E         
e|-----------------------------------------------------------------------|
B|-----------------------------------------------------------------------|
G|-----------------------------------------------------------------------|  alternate
D|-5-5-5-5-5-7-7-7-3-3-3-3-3-3-3-3---------------------------------------|
A|----------------------------------3-3-3-3-3-3-3-3-3-3-3-3-3-3-3-3------|
E|-----------------------------------------------------------------------|

Verse:
    I got in, you got out...              ...as  u-su-al, I'm stuck...

   Am7                                           C/G        Am/F     Cmaj7/E
e|-----------------------------|--------------------------------------------|
B|-----------------------------|-----------------8--8--8--8-----------------|
G|-----------------------------|-7-7-7-7-9-9-9-9------------10--9-10-10-9---|
D|-7-7-7-7-10-10-10-10- X3-----|--------------------------------------------|  X3
A|-----------------------------|--------------------------------------------|
E|-----------------------------|--------------------------------------------|

     
*Here’s what I play alonside ^this first part. Strum each chord four times.

e|--5----5----5----5----5----5----5----5-------------|
B|--5----5----5----5----5----5----5----5-------------|
G|--5----5----5----5----5----5----5----5-------------|
D|--5----5----5----5----5----5----5----5-------------|
A|--7----7----7----7----7----7----5----7-------------|
E|--5----8----5----8----5----8----5----5-------------|

  
Bridge: 

Where he sings “And I’m drowning in myself again” twice

*play the intro, normal the first time, and alternate the second time


Then,
                            Em     Cmaj7/E*   Em    Cmaj7/E*
e|---------------------------0-------(0)-------0------(0)-------(15)-------|
B|---------------------------0-------(0)-------0------(0)-------(15)-------|
G|---------------------------0- X 4 --9- X 4 --0- X4 --9--- X4 -(12)-------|
D|---------------------------2-------10--------2------10-------------------|
A|---------------------------2-------10--------2------10-------------------|
E|-8---8-8---8-8---8-8-8-3-0-0--------8--------0-------8-------------------|


Then it goes back to the verse  

After that verse it plays the bridge part again

Outro
   C/G              Am/F            C                   C
e|------------------------------------------------------8------|
B|------------------------------------------------------8------|
G|------------------------------------------------------9------|
D|--5-5-5-5-5-7-7-7------------------------------------10------|
A|------------------8-8-8-8-8-8-8-8--------------------10------|
E|----------------------------------8 (let ring) -------8------|

            
            
Suggest correction
Creating personal tab
Creating personal tab
You can edit any tab online and save it as your Personal.

You can edit, replace or remove any tab part or add personal notes – all changes will be seen only by you.

Personal tabs can be accessed anytime from any device, even offline.
Learn more »
comments
print report bad tab
3 comments total.
+1 reply
le5n 10 Feb 02, 2012 03:28 AM

Not bad :D And thanks for tabbing this song, ur the first one

-1 reply
mr.mick.d 147 Dec 08, 2013 06:14 PM, edited at 11:21 pm

Stuck in the Middle - The Burning Hotels-----------------------------------------------------------------Band url: burninghotels.net/Tabbed by: mr.mick.dEmail: keeperkid1@gmail.comTuning: Eb Ab Db Gb Bb eb
C/G Am/F Cmaj7/E (*) C Em e|-- 3 ------- 5 ------ 12 ----- 0 ----- 8 ----- 0 -------------------|B|-- 5 ------- 5 ------ 12 ----- 0 ----- 8 ----- 0 -------------------|G|-- 5 ------- 5 ------- 9 ----- 9 ----- 9 ----- 0 -------------------|D|-- 5 ------- 7 ------ 10 ?--- 10 ----- 10 ---- 2 -------------------|A|-- 3 ------- 8 ------- x ?--- 10 ----- 10 ---- 2 -------------------|E|-- 3 ------- x ------- x ----- 8 ----- 8 ----- 0 -------------------|
Intro:*(down strum on each 1/8th note) C/G Am/F C Cmaj7/E e|-----------------------------------------------------------------------|B|-----------------------------------------------------------------------|G|-----------------------------------------------------------------------| X3 thenD|-5-5-5-5-5-7-7-7-3-3-3-3-3-3-3-3---------------------------------------|A|----------------------------------3-3-3-3-3-3-----2-2-2-2-2-2-2-2------|E|----------------------------------------------3-3----------------------| C/G Am/F C Cmaj7/E e|-----------------------------------------------------------------------|B|-----------------------------------------------------------------------|G|-----------------------------------------------------------------------| alternateD|-5-5-5-5-5-7-7-7-3-3-3-3-3-3-3-3---------------------------------------|A|----------------------------------3-3-3-3-3-3-3-3-3-3-3-3-3-3-3-3------|E|-----------------------------------------------------------------------|Verse: I got in, you got out... ...as u-su-al, I'm stuck... Am7 C/G Am/F Cmaj7/Ee|-----------------------------|--------------------------------------------|B|-----------------------------|-----------------8--8--8--8-----------------|G|-----------------------------|-7-7-7-7-9-9-9-9-------------9--8-9-9-8-----|D|-7-7-7-7-10-10-10-10- X3-----|--------------------------------------------| X3A|-----------------------------|--------------------------------------------|E|-----------------------------|--------------------------------------------| *Here?s what I play alonside ^this first part. Strum each chord four times.e|--5----5----5----5----5----5----5----5-------------|B|--5----5----5----5----5----5----5----5-------------|G|--5----5----5----5----5----5----5----5-------------|D|--5----5----5----5----5----5----5----5-------------|A|--7----7----7----7----7----7----5----7-------------|E|--5----8----5----8----5----8----5----5-------------|
Bridge: Where he sings ?And I?m drowning in myself again? twice*play the intro, normal the first time, and alternate the second time
Then, Em Cmaj7/E* Em Cmaj7/E*e|---------------------------0-------(0)-------0------(0)------------------|B|---------------------------0-------(0)-------0------(0)------------------|G|---------------------------0- X 4 --9- X 4 --0- X4 --9--- X4 ----------|D|---------------------------2-------10--------2------10-------------------|A|---------------------------2-------10--------2------10-------------------|E|-8---8-8---8-8-----8-8-3-0-0--------8--------0-------8-------------------|
Then it goes back to the verse After that verse it plays the bridge part againOutro C/G Am/F C Ce|------------------------------------------------------8------|B|------------------------------------------------------8------|G|------------------------------------------------------9------|D|--5-5-5-5-5-7-7-7------------------------------------10------|A|------------------8-8-8-8-8-8-8-8--------------------10------|E|----------------------------------8 (let ring) -------8------|

-1 reply
mr.mick.d 147 Dec 08, 2013 06:32 PM

Ignore that ^ I guess.

That is NOT how it was supposed to look XD

guest
You may want to rate the tab now too:
select rating
Wanna post a correction for this tab? Suggest correction