Oops, an error
Loading. Please wait.

Aisles Of White intro tab

version 2
version 2

Intro

Whole song

971 views 1 this week
1 commentread comment
1 2 3 4 5
2 more votes to show rating
add to favorites
×
Save as Personal and add changes to this tab that will be seen only by you. Learn more ›
×
You can save this tab as Personal to edit and correct it or add notes. All changes will be seen only by you. Learn more »
launch autoscroll
font size
0
reset
how to read this tab
guitar tuner
edit
Autoscroll
slow
fast
+/-
esc
set tempo
stop
Author
tuning: CGCFAD (low to hi)

D|-----0----------------------------|
A|-------3-1---1-----1--1h3-3-------|
F|-----------2-----2-----------2----|
C|-0--------------------------------|
G|----------------------------------|
C|----------------------------------|  X4

D|---1-----0-----3-----1---------------------------------------|
A|------------------------theres some quite notes--------------|
F|------------------------that I need to figure out here-------|
C|-0-----0-----0-----0----It may just an effects in the song---|
G|-------------------------------------------------------------|
C|-------------------------------------------------------------|

D|---1-----0-----3--------|
A|------------------------|
F|------------------------|
C|-0-----0-----0----------|
G|------------------------|
C|------------------------|

D|--0-------------------------------|
A|----3-1---1-----1--1h3-3----------|
F|--------2-----2-----------2-------|
C|----------------------------------|
G|----------------------------------|
C|----------------------------------|

D|---1-----0-----3-----1----------------------------------------|
A|------------------------theres some quite notes---------------|
F|------------------------that I need to figure out here--------|
C|-0-----0-----0-----0----It may be just an effects in the song-|
G|--------------------------------------------------------------|
C|--------------------------------------------------------------|

D|---1-----0-----3-----5---------|
A|-----------------------5-3-----|
F|-------------------------------|
C|-0-----0-----0-----0-----------|
G|-------------------------------|
C|-------------------------------|

Please rate, and tell me if theres any mistakes/suggestions you have. Ill try getting 
rest done later =]

            
            
Suggest correction
Creating personal tab
Creating personal tab
You can edit any tab online and save it as your Personal.

You can edit, replace or remove any tab part or add personal notes – all changes will be seen only by you.

Personal tabs can be accessed anytime from any device, even offline.
Learn more »
Give kudos to tab author, rate the tab!
1 2 3 4 5
comments
print report bad tab
1 comment total.
0 reply
thebearclan 30 Dec 26, 2008 06:06 AM

Well done man, exactly how i play it, i got the rest by ear too, and intend to tab it down, btw the last two notes you got there, is actually:

D|---1-----0-----3-----5---------|
A|-----------------------3-------|
F|-------------------------2-----|
C|-0-----0-----0-----0-----------|
G|-------------------------------|
C|-------------------------------|

i'm pretty sure of that, cos it leads in to the next bit.

guest
You may want to rate the tab now too:
select rating
Wanna post a correction for this tab? Suggest correction