Oops, an error
Loading. Please wait.

Dionysus bass

1,015 views 27 this week
no commentswrite comment
1 2 3 4 5
x 3
add to favorites
×
Save as Personal and add changes to this tab that will be seen only by you. Learn more ›
×
You can save this tab as Personal to edit and correct it or add notes. All changes will be seen only by you. Learn more »
launch autoscroll
font size
0
reset
guitar tuner
edit
Autoscroll
slow
fast
+/-
esc
set tempo
stop
Author
Difficulty
Tabbed by: 6METAL6BASSIST6
E-mail: petergriffinav@gmail.com

Tuning: EADG

G|----------------------------------------------------------------|
D|--------7-----------7---------------------------7---------------|
A|9---------------9-----------8-------8-------8-----------8-/-----|
E|----------------------------------------------------------------|

G|------------------------------------------------12--------------|
D|-----------------12h-14-----14------14--14--14------14--12--\---|
A|14------14------------------------------------------------------|
E|----------------------------------------------------------------|

G|----------------------------------------------------------------|
D|----------------7-------------------------------7---------------|
A|9-------9---9-------9---9---8-------8-------8-----------8-/-----|
E|----------------------------------------------------------------|

G|----------------------------------------------------------------|
D|-----------------12h-14-----14------14--14------14------14------|
A|14------14------------------------------------------------------|
E|----------------------------------------------------------------|

0:16

G|----------------------------------------------------------------|
D|----------------7-------------------------------7---------------|
A|9-------9---9-------9---9---8-------8-------8-----------8-\-----|
E|----------------------------------------------------------------|

G|----------------------------------------------------------------|
D|----------------------------------------------------------------|
A|----------------------------------------------------------------|
E|5-------5-------5-------5---4-------4---4-------7-------7-------|

G|----------------------------------------------------------------|
D|------------------------------------7---5-----------------------|
A|--------------------------------------------7---5-h-7---7-------|
E|5-------5-----------5-------5-----------------------------------|

G|----------------------------------------------------------------|
D|--------------------------------------------------------5-------|
A|------------------------------------7---7-------7---------------|
E|5-------5-----------5-------5-----------------------------------|

0:31

G|----------------------------------------------------------------|
D|7---------------9---7-------------------------------------------|
A|------------------------9-------7-----------7-------7---7-------|
E|----------------------------------------------------------------|

G|----------------------------------------------------------------|
D|7-------7-------9---7-------------------------------------------| x2
A|------------------------9-------7-----------7-------7---7-------|
E|----------------------------------------------------------------|

G|----------------------------------------------------------------|
D|----------------------------------------------------------------|
A|----------------------------------------------------------------|
E|9-------------------------------7---7-------7---7---7---7-------|

G|----------------------------------------------------------------|
D|----------------------------------------------------------------|
A|----------------7-----------------------------------------------|
E|9-------9---9-------9-----------7-----------7---7-------7-------|

0:49

G|----------------------------------------------------------------|
D|7-------7-------9---7-------------------------------------------|
A|------------------------9-------7-----------7-------7---7-------|
E|----------------------------------------------------------------|

G|----------------------------------------------------------------|
D|7-------7---7---9---7-------------------------------------------|
A|------------------------9-------7-----------7-------7---7-------|
E|----------------------------------------------------------------|

G|----------------------------------------------------------------|
D|7-------7-------9---7-------------------------------------------|
A|------------------------9-------7-----------7-----------7-------|
E|----------------------------------------------------------------|

G|----------------------------------------------------------------|
D|----------------------------------------------------------------|
A|----------------------------------------------------------------|
E|9-------------------------------7---7-------7---7---7---7-------|

G|----------------------------------------------------------------|
D|----------------------------------------------------------------|
A|----------------7-----------------------------------------------|
E|9-------9---9-------9-----------7-----------7---7-------7-------|

G|----------------------------------------------------------------|
D|------------------------------------7---5-----------------------|
A|------------------------------------------------7-------7-------|
E|5-------5-----------5-------5-----------------------------------|

1:10

G|----------------------------------------------------------------|
D|----------------------------------------------------------------|
A|--------------------------------4-----------4-------------------|
E|5---------------5-------5-----------------------4-------4-------|

G|----------------------------------------------------------------|
D|----------------------------------------------------------------|
A|----------------2-------------------2---2---2---4-------4-------|
E|2-----------2-----------2---------------------------------------|

G|----------------------------------------------------------------|
D|----------------------------------------------------------------|
A|--------------------------------4-----------4-------------------|
E|5-----------5---5-------5-----------------------4-------4-------|

G|----------------------------------------------------------------|
D|----------------------------------------------------------------|
A|----------------2-------------------2---2-------4-------4-------|
E|2-----------2-----------2---------------------------------------|

1:25

G|----------------------------------------------------------------|
D|----------------------------------------------------------------|
A|--------------------------------4-----------4-------------------|
E|5-----------5---5-------5-----------------------4-------4-------|

G|----------------------------------------------------------------|
D|----------------------------------------------------------------|
A|----------------2---------------2-------2---2---2---2---2-------|
E|2-----------2-----------2---------------------------------------|

G|----------------------------------------------------------------|
D|----------------------------------------------------------------|
A|4-------4---4---4---4---4---4---4-------4---4---4-------4-------|
E|----------------------------------------------------------------|

G|----------------------------------------------------------------|
D|----------------------------------------------------------------|
A|4-------------------------------------------------------/-------|
E|----------------------------------------------------------------|

1:41

G|----------------------------------------------------------------|
D|--------7-----------7---------------------------7---------------|
A|9---------------9-------9---8-------8---8---8-----------8-/-----|
E|----------------------------------------------------------------|

G|------------------------------------------------12--------------|
D|-----------------12h-14-----14------14--14--14------14--12--\---|
A|14------14------------------------------------------------------|
E|----------------------------------------------------------------|

G|----------------------------------------------------------------|
D|----------------7-------------------------------7---------------|
A|9-------9---9-------9---9---8-------8-------8-----------8-/-----|
E|----------------------------------------------------------------|

G|----------------------------------------------------------------|
D|-----------------12h-14-----14------14--14--14--14------14\-----|
A|14------14------------------------------------------------------|
E|----------------------------------------------------------------|

1:55

G|----------------------------------------------------------------|
D|----------------------------------------------------------------|
A|7-----------7---------------7-------7---------------------------|
E|----------------7---------------------------7-------7---7---7---|

G|----------------------------------------------------------------|
D|----------------------------------------------------------------|
A|----------------------------------------------------------------|
E|9-------9---9---9---9---\-------2-----------2-------2---2---/---|

G|----------------------------------------------------------------|
D|----------------------------------------------------------------|
A|7-----------7---------------7-------7---------------------------|
E|----------------7---------------------------7-------7---7---7---|

G|----------------------------------------------------------------|
D|----------------------------------------------------------------|
A|----------------------------------------------------------------|
E|9-------9---9---9---9---\-------2-----------2-----------2-------|

2:09

G|----------------------------------------------------------------|
D|----------------------------------------------------------------|
A|--------------------------------4-----------4-------------------|
E|5-----------5---5-------5-----------------------4-------4-------|

G|----------------------------------------------------------------|
D|----------------------------------------------------------------|
A|----------------2-------------------2---2-------4-------4-------|
E|2-----------2-----------2---2-----------------------------------|

G|----------------------------------------------------------------|
D|----------------------------------------------------------------|
A|--------------------------------4-----------4-------------------|
E|5-----------5---5-------5-----------------------4-------4-------|

G|----------------------------------------------------------------|
D|----------------------------------------------------------------|
A|----------------2-------------------2---2-------4-------4-------|
E|2-----------2-----------2---------------------------------------|

2:24

G|----------------------------------------------------------------|
D|----------------------------------------------------------------|
A|--------------------------------4-----------4-------------------|
E|5-----------5---5-------5-----------------------4-------4-------|

G|----------------------------------------------------------------|
D|----------------------------------------------------------------|
A|----------------2---------------2-------2---2-------2---2-------|
E|2-----------2-----------2---------------------------------------|

G|----------------------------------------------------------------|
D|----------------------------------------------------------------|
A|4-------4---4-------4---4---4---4---4---4---4---4-------4-------|
E|----------------------------------------------------------------|

G|----------------------------------------------------------------|
D|----------------------------------------------------------------|
A|4---------------------------------------------------------------|
E|----------------------------------------------------------------|

G|----------------------------------------------------------------|
D|----------------------------------------------------1-h-2-/-----|
A|----------------------------------------------------------------|
E|----------------------------------------------------------------|

2:43

G|----------------------------------------------------------------|
D|7-------7-------9---7-------------------------------------------|
A|------------------------9-------7-----------7-----------7-------|
E|----------------------------------------------------------------|

G|----------------------------------------------------------------|
D|----------------------------------------------------------------|
A|----------------------------------------------------------------|
E|9-------------------------------7---7-------7---7---7---7-------|

G|----------------------------------------------------------------|
D|----------------------------------------------------------------|
A|----------------7-----------------------------------------------|
E|9-------9-----------9-----------7-----------7-------7---7-------|

2:53

G|----------------------------------------------------------------|
D|7-------7-------9---7-------------------------------------------|
A|------------------------9-------7-----------7-------7---7-------|
E|----------------------------------------------------------------|

G|----------------------------------------------------------------|
D|7-------7---7---9---7-------------------------------------------| x2
A|------------------------9-------7-----------7-------7---7---7---|
E|----------------------------------------------------------------|

G|----------------------------------------------------------------|
D|----------------------------------------------------------------|
A|----------------------------------------------------------------|
E|9-------9---9---9---9-----------7-----------7-------7---7-------|

G|----------------------------------------------------------------|
D|----------------------------------------------------------------|
A|----------------7-----------------------------------------------|
E|9-------9---9-------9-----------7-----------7-----------7-------|

3:12

G|----------------------------------------------------------------|
D|------------------------------------7---5-----------------------|
A|--------------------------------------------7---5-h-7---7-------|
E|5-------5-----------5-------5-----------------------------------|

G|----------------------------------------------------------------|
D|----------------------------------------5---7---7h10----7-------|
A|------------------------------------7---------------------------|
E|5-------5-----------5-------5-----------------------------------|

G|----------------------------------------------------------------|
D|------------------------------------7---5-----------------------|
A|------------------------------------------------7---------------|
E|5-------5-----------5-------5-----------------------------------|

G|--------------------------------|
D|--------------------------------|
A|--------------------------------|
E|5-------5-----------5-------5---|

            
            
Suggest correction
Creating personal tab
Creating personal tab
You can edit any tab online and save it as your Personal.

You can edit, replace or remove any tab part or add personal notes – all changes will be seen only by you.

Personal tabs can be accessed anytime from any device, even offline.
Learn more »
Give kudos to tab author, rate the tab!
1 2 3 4 5
comments
print report bad tab
guest
You may want to rate the tab now too:
select rating
Wanna post a correction for this tab? Suggest correction