Oops, an error
Loading. Please wait.

All I Really Want To Do bass

version 1
version 1

Whole song

Interactive

1,116 views 1 this week
no commentswrite comment
1 2 3 4 5
2 more votes to show rating
add to favorites
×
Save as Personal and add changes to this tab that will be seen only by you. Learn more ›
×
You can save this tab as Personal to edit and correct it or add notes. All changes will be seen only by you. Learn more »
launch autoscroll
font size
0
reset
guitar tuner
edit
Autoscroll
slow
fast
+/-
esc
set tempo
stop
Author
All I Really Want To Do
The Byrds
Written by Bob Dylan; released as a single with "I'll Feel A Whole Lot 
Better" as the B-side, and on the album "Mr. Tambourine Man"

Intro:
G|------- ------- ------- -------|------- ------- ------- -------|
D|-------------------------------|-------------------------------|
A|-------------------------------|-------------------------------|
E|-------------------------------|-------------------------------|


Verse:
G|------- ------- ------- -------|------- ------- ------- -------|
D|----------------7--------------|----------------7-------7------|
A|5-----------5------------------|7-------------------7-------7--|
E|-------------------------------|-------------------------------|
  I ain't     looking     to  compete     with you,


G|------- ------- ------- -------|------- ------- ------- -------|
D|--------4-------7-------7------|-------------------------------|
A|5-----------5-------7-------7--|7-----------7------------------|
E|-------------------------------|----------------5--------------|
  beat or     cheat,      or      mis- treat  you,


G|------- ------- ------- -------|------- ------- ------- -------|
D|-------------------------------|--------7----------------------|
A|5-----------5---7--------------|7-----------7------------------|
E|----------------------------5--|----------------5--------------|
  Simpli  -  fy   you,            pa  -   ci- fy      you,    de-


G|------- ------- ------- -------|------- ------- ------- -------|
D|----------------7-----------7--|------------7---7-----------7--|
A|5-----------5------------------|7------------------------------|
E|-------------------------------|-------------------------------|
  ny,         de- fy,         or  cru  -  ci- fy      you.

Refrain:
G|------- ------- ------- -------|------- ------- ------- -------|
D|7-----------7---7-----------7--|--------4-------4--------------|
A|-------------------------------|5-----------5-------5---5---7--|
E|-------------------------------|-------------------------------|
          All             I       really                  wanna


G|------- ------- ------- -------|------- -------|
D|7-------6-------4-----------4--|---------------|
A|-------------------------------|5-----------5--|
E|-------------------------------|---------------|
  do                                          is,


G|------- ------- ------- -------|------- ------- ------- -------|
D|-------------------------------|7-----------7---7-----------7--|
A|7-----------7---5-----------5--|-------------------------------|
E|-------------------------------|-------------------------------|
  ba - by,   be   friends    with you.


G|------- ------- ------- -------|
D|7-----------7---7--------------|
A|----------------------------7--|
E|-------------------------------|
                              No,

Verse:
G|------- ------- ------- -------|------- ------- ------- -------|
D|----------------7-----------7--|----------------7--------------|
A|5-----------5------------------|7-----------7---------------7--|
E|-------------------------------|-------------------------------|
  I   ain't   looking         to  fight   with you,


G|------- ------- ------- -------|------- ------- ------- -------|
D|--------4-------7--------------|----------------7-----------7--|
A|5-----------5------------------|7-----------7------------------|
E|-------------------------------|-------------------------------|
  frigh - ten you,        or  up- tigh -  ten you,


G|------- ------- ------- -------|------- ------- ------- -------|
D|--------4-------7--------------|----------------7--------------|
A|5-----------5---------------9--|7-----------7---------------7--|
E|-------------------------------|-------------------------------|
  Drag    you down,       or      drain you   down,


G|------- ------- ------- -------|------- ------- ------- -------|
D|--------4-------7-----------7--|------------7------------------|
A|5-----------5------------------|7------------------------------|
E|-------------------------------|-------------------------------|
  chain   you down,       or      bring   you down.

Refrain:
G|------- ------- ------- -------|------- ------- ------- -------|
D|7-----------7---7--------------|--------4-------7--------------|
A|-------------------------------|5-----------5-----------7------|
E|-------------------------------|-------------------------------|
          All             I       really                  wanna


G|------- ------- ------- -------|------- -------|
D|7-------6-------4--------------|--------4------|
A|----------------------------4--|5-----------5--|
E|-------------------------------|---------------|
  do                                          is,


G|------- ------- ------- -------|------- ------- ------- -------|
D|-------------------------------|7-----------7---7--------------|
A|7-----------7---5-----------5--|-------------------------------|
E|-------------------------------|-------------------------------|
  ba - by,   be   friends    with you.


G|------- ------- ------- -------|
D|7-----------7---7--------------|
A|----------------------------7--|
E|-------------------------------|


Bridge:
G|------- ------- ------- -------|------- ------- ------- -------|
D|-------------------------------|-------------------------------|
A|-------------------------------|-------------------------------|
E|3-----------3---3-----------2--|3-----------3---3--------------|
          I don't want        to  fake you    out,
  aaaaaaaaaaaaaaaaaaaaaaaaaaaaaaaaaaaaaaaaaaaaaaaaaaaaaaaaaaaaaa

G|------- ------- ------- -------|------- ------- ------- -------|
D|-------------------------------|------------------------4------|
A|2-----------2---2--------------|2-----------2---2-----------5--|
E|------------------------2------|-------------------------------|
          take or shake,  or  forsake     you out,
  aaaaaaaaaaaaaaaaaaaaaaaaaaaaaaaaaaaaaaaaaaaaaaaaaaaaaaaaaaaaaa

G|------- ------- ------- -------|------- ------- ------- -------|
D|-------------------------------|-------------------------------|
A|7-----------7---7-------7------|-------------------------------|
E|-------------------------------|5-----------5---5--------------|
          I ain't looking you to  feel like   me,
                        for

G|------- ------- ------- -------|------- ------- ------- ------- ------- -------|
D|-------------------------------|-----------------------------------------------|
A|----------------------------5--|8-----------5-----------------------8---8---8--|
E|8-----------8---8--------------|-----------------------------------------------|
  see like    me,             or  be  like    me.


G|------- ------- ------- -------|
D|-------------------------------|
A|5-----------5-----------5---4--|
E|-------------------------------|


Verse:
G|------- ------- ------- -------|------- ------- ------- -------|
D|--------4----------------------|----------------7--------------|
A|5-----------5---7-----------7--|7-----------7---------------7--|
E|-------------------------------|-------------------------------|
  I   don't   want            to  meet your   kin,


G|------- ------- ------- -------|------- ------- ------- -------|
D|--------4-------7--------------|------------7-----------7------|
A|5-----------5---------------9--|7---------------------------7--|
E|-------------------------------|-------------------------------|
  make you    spin,       or      do      you in,


G|------- ------- ------- -------|------- ------- ------- -------|
D|--------4-------7--------------|------------7-----------7------|
A|5-----------5---------------9--|7------------------------------|
E|-------------------------------|-------------------------------|
  Or      se- lect you,           or      dissect     you,


G|------- ------- ------- -------|------- ------- ------- -------|
D|----------------7-----------6--|------------7-----------7------|
A|5-----------5------------------|7-------9----------------------|
E|-------------------------------|-------------------------------|
  or      in  -   spect   you,    or      re- ject    you.

Refrain:
G|------- ------- ------- -------|------- ------- ------- -------|
D|7-----------7---7--------------|--------4-------4--------------|
A|----------------------------7--|5-----------5-----------5---7--|
E|-------------------------------|-------------------------------|
          All             I       really                  wanna


G|------- ------- ------- -------|------- -------|
D|7-------6-------4--------------|--------4------|
A|----------------------------4--|5-----------5--|
E|-------------------------------|---------------|
  do                                          is,


G|------- ------- ------- -------|------- ------- ------- -------|
D|-------------------------------|7-----------7---7-----------7--|
A|7-----------7---5-----------5--|-------------------------------|
E|-------------------------------|-------------------------------|
  ba - by,   be   friends    with you,


G|------- ------- ------- -------|------- ------- ------- -------|
D|-------------------------------|7-----------7------------------|
A|7-----------7---5--------------|----------------5-----------7--|
E|-------------------------------|-------------------------------|
  ba - by,   be   friends    with you,


G|------- ------- ------- -------|------- ------- ------- -------|
D|-------------------------------|7-----------7---7-------7------|
A|7-----------7---5-----------5--|-------------------------------|
E|-------------------------------|-------------------------------|
  ba - by,   be   friends    with you.


G|------- ------- ------- -------|------- ------- ------- -------|
D|-------------------------------|-------------------------------|
A|-------------------------------|-------------------------------|
E|5-----------------------5------|5------------------------------|



G|------- ------- ------- -------|------- ------- ------- -------|
D|-------------------------------|-------------------------------|
A|-------------------------------|-------------------------------|
E|5------------------------------|-------------------------------|

Please e-mail me for any corrections, or write a comment.

            
            
Suggest correction
Creating personal tab
Creating personal tab
You can edit any tab online and save it as your Personal.

You can edit, replace or remove any tab part or add personal notes – all changes will be seen only by you.

Personal tabs can be accessed anytime from any device, even offline.
Learn more »
Give kudos to tab author, rate the tab!
1 2 3 4 5
comments
print report bad tab
guest
You may want to rate the tab now too:
select rating
Wanna post a correction for this tab? Suggest correction