Oops, an error
Loading. Please wait.

Endlessly tab

version 2
version 2

Whole song

by The Cab
446 views 1 this week
no commentswrite comment
1 2 3 4 5
2 more votes to show rating
add to favorites
×
Save as Personal and add changes to this tab that will be seen only by you. Learn more ›
×
You can save this tab as Personal to edit and correct it or add notes. All changes will be seen only by you. Learn more »
launch autoscroll
font size
0
reset
how to read this tab
guitar tuner
edit
Autoscroll
slow
fast
+/-
esc
set tempo
stop
-------------------------------------------------------------------------------
                             ENDLESSLY - The Cab
-------------------------------------------------------------------------------
Tabbed by: owlcitizen97
E-mail: nashf97@hotmail.com

Tuning: Drop D [D A D G B E]

INTRO
guitar 1 (piano)
  A                E                F#m              D
E|------------0~~~|------------0~~~|------------0~~~|------------4~~~|  x2
B|------0~~~~~~~2~|------0~~~~~~~2~|------0~~~~~~~2~|------0~~~~~~~5~|
G|----2~~~~~2~~~~~|----2~~~~~2~~~~~|----2~~~~~2~~~~~|----2~~~~~2~~~~~|
D|--2~~~~~2~~~~~~~|----------------|----------------|----------------|
A|0~~~~~~~~~~~~~~~|--2~~~~~2~~~~~~~|--4~~~~~4~~~~~~~|--0~~~~~0~~~~~~~|
D|----------------|2~~~~~~~~~~~~~~~|4~~~~~~~~~~~~~~~|0~~~~~~~~~~~~~~~|

VERSE 1
guitar 1 (piano)
  A                E                F#m              D
E|------------0~~~|------------0~~~|------------0~~~|------------4~~~|  (repeat throughout)
B|------0~~~~~~~2~|------0~~~~~~~2~|------0~~~~~~~2~|------0~~~~~~~5~|  (base the timing off chords)
G|----2~~~~~2~~~~~|----2~~~~~2~~~~~|----2~~~~~2~~~~~|----2~~~~~2~~~~~|
D|--2~~~~~2~~~~~~~|----------------|----------------|----------------|
A|0~~~~~~~~~~~~~~~|--2~~~~~2~~~~~~~|--4~~~~~4~~~~~~~|--0~~~~~0~~~~~~~|
D|----------------|2~~~~~~~~~~~~~~~|4~~~~~~~~~~~~~~~|0~~~~~~~~~~~~~~~|

          A                               E                        F#m                D
There's a shop down the street where they sell plastic rings for a quarter a piece, I swear it.
       A                              E                          F#m                    D
Yeah I know that it's cheap, not like gold in your dreams, but I hope that you'll still wear it.

PRE CHORUS 1
guitar 1 (piano)
  A                E                F#m              D
E|------------0---|------------0---|------------0---|------------4-0-|  (repeat throughout)
B|------0-------2-|------0-------2-|------0-------2-|------0---------|  (base the timing off chords)
G|----2-----2-----|----2-----2-----|----2-----2-----|----2-----2-----|
D|--2-----2-------|----------------|----------------|----------------|
A|0~~~~~~~~~~~~~~~|--2-----2-------|--4-----4-------|--0-----0-------|
D|----------------|2~~~~~~~~~~~~~~~|4~~~~~~~~~~~~~~~|0~~~~~~~~~~~~~~~|
guitar 2 (guitar)
  A                E                F#m              D
E|x---x---x---x---|x---x---x---x---|x---x---x---x---|2~~~~~~~~~~~~~~~|
B|0---0---0---0---|x---x---x---x---|x---x---x---x---|3~~~~~~~~~~~~~~~|
G|2---2---2---2---|2---2---2---2---|2---2---2---2---|2~~~~~~~~~~~~~~~|
D|2---2---2---2---|2---2---2---2---|4---4---4---4---|0~~~~~~~~~~~~~~~|
A|0---0---0---0---|2---2---2---2---|4---4---4---4---|0~~~~~~~~~~~~~~~|
D|x---x---x---x---|2---2---2---2---|4---4---4---4---|0~~~~~~~~~~~~~~~|

          A                E
Yeah, the ink may stain my skin,
       F#m              D
and my jeans may all be ripped.
        A
I'm not perfect, 
      E                     F#m            D
but I swear I'm perfect for you.

CHORUS
guitar 2 (guitar)
  A                E                F#m              D
E|----------------|----------------|----------------|----------------|  (repeat throughout)
B|-----2-0~~~~~~--|----2-0~~~~~~~--|----2-0~~~~~~~--|----3-0~~~~~~~--|  (base the timing off chords)
G|--------------2-|--------------2-|--------------2-|--2-----------2-|
D|--2-------------|--2-------------|--2-------------|0---------------|
A|0---------------|2---------------|4---------------|----------------|
D|----------------|----------------|----------------|----------------|
guitar 3 (violins)
  A                E                F#m              D
E|0---0---0---0---|0---0---0---0---|2---2---2---2---|2---2---2---2---|
B|0---0---0---0---|0---0---0---0---|2---2---2---2---|3---3---3---3---|
G|2---2---2---2---|2---2---2---2---|2---2---2---2---|2---2---2---2---|
D|2---2---2---2---|2---2---2---2---|4---4---4---4---|0---0---0---0---|
A|0---0---0---0---|2---2---2---2---|4---4---4---4---|0---0---0---0---|
D|x---x---x---x---|2---2---2---2---|4---4---4---4---|0---0---0---0---|

    A                E                     F#m   D
And there's no guarantee that this will be eeeaasy
           A           E       F#m   D
It's not a miracle you need, believe me.
    A             E
Now I'm no angel, I'm just me,
    F#m             D
But I will love you endlessly!
A                     E
Wings aren't what you need,
    F#m  D
You need me.

BRIDGE
guitar 1 (piano)
  A                E                F#m              D
E|------------0---|------------0---|------------0---|------------4-0-|  x2
B|------0-------2-|------0-------2-|------0-------2-|------0---------|
G|----2-----2-----|----2-----2-----|----2-----2-----|----2-----2-----|
D|--2-----2-------|----------------|----------------|----------------|
A|0---------------|--2-----2-------|--4-----4-------|--0-----0-------|
D|----------------|2---------------|4---------------|0---------------|

VERSE 2
guitar 1 (piano)
  A                E                F#m              D
E|------------0~~~|------------0~~~|------------0~~~|------------4~~~|  (repeat throughout)
B|------0~~~~~~~2~|------0~~~~~~~2~|------0~~~~~~~2~|------0~~~~~~~5~|  (base timing off chords)
G|----2~~~~~2~~~~~|----2~~~~~2~~~~~|----2~~~~~2~~~~~|----2~~~~~2~~~~~|
D|--2~~~~~2~~~~~~~|----------------|----------------|----------------|
A|0~~~~~~~~~~~~~~~|--2~~~~~2~~~~~~~|--4~~~~~4~~~~~~~|--0~~~~~0~~~~~~~|
D|----------------|2~~~~~~~~~~~~~~~|4~~~~~~~~~~~~~~~|0~~~~~~~~~~~~~~~|

          A                        E                      F#m            D
There's a house on the hill with a view of the town and I know how you adore it..
        A                          E                  F#m        D
So I'll work every day through the sun and the rain until I can afford it.

PRE CHORUS 2
guitar 1 (piano)
  A                E                F#m              D
E|------------0---|------------0---|------------0---|------------4-0-|  (repeat throughout)
B|------0-------2-|------0-------2-|------0-------2-|------0---------|  (base timing off chords)
G|----2-----2-----|----2-----2-----|----2-----2-----|----2-----2-----|
D|--2-----2-------|----------------|----------------|----------------|
A|0~~~~~~~~~~~~~~~|--2-----2-------|--4-----4-------|--0-----0-------|
D|----------------|2~~~~~~~~~~~~~~~|4~~~~~~~~~~~~~~~|0~~~~~~~~~~~~~~~|
guitar 2 (guitar)
  A                E                F#m              D
E|x---x---x---x---|x---x---x---x---|x---x---x---x---|2~~~~~~~~~~~~~~~|
B|0---0---0---0---|x---x---x---x---|x---x---x---x---|3~~~~~~~~~~~~~~~|
G|2---2---2---2---|2---2---2---2---|2---2---2---2---|2~~~~~~~~~~~~~~~|
D|2---2---2---2---|2---2---2---2---|4---4---4---4---|0~~~~~~~~~~~~~~~|
A|0---0---0---0---|2---2---2---2---|4---4---4---4---|0~~~~~~~~~~~~~~~|
D|x---x---x---x---|2---2---2---2---|4---4---4---4---|0~~~~~~~~~~~~~~~|

     A                       E
Your friends may think I'm crazy,
       F#m           D
'cause they can only see.
        A
I'm not perfect, 
      E                     F#m            D
but I swear I'm perfect for you.

CHORUS
guitar 2 (guitar)
  A                E                F#m              D
E|----------------|----------------|----------------|----------------|  (repeat throughout)
B|-----2-0~~~~~~--|----2-0~~~~~~~--|----2-0~~~~~~~--|----3-0~~~~~~~--|  (base timing off chords)
G|--------------2-|--------------2-|--------------2-|--2-----------2-|
D|--2-------------|--2-------------|--2-------------|0---------------|
A|0---------------|2---------------|4---------------|----------------|
D|----------------|----------------|----------------|----------------|
guitar 3 (violins)
  A                E                F#m              D
E|0---0---0---0---|0---0---0---0---|2---2---2---2---|2---2---2---2---|
B|0---0---0---0---|0---0---0---0---|2---2---2---2---|3---3---3---3---|
G|2---2---2---2---|2---2---2---2---|2---2---2---2---|2---2---2---2---|
D|2---2---2---2---|2---2---2---2---|4---4---4---4---|0---0---0---0---|
A|0---0---0---0---|2---2---2---2---|4---4---4---4---|0---0---0---0---|
D|x---x---x---x---|2---2---2---2---|4---4---4---4---|0---0---0---0---|

    A                E                     F#m   D
And there's no guarantee that this will be eeeaasy
           A           E       F#m   D
It's not a miracle you need, believe me.
    A             E
Now I'm no angel, I'm just me,
    F#m             D
But I will love you endlessly!
A                     E
Wings aren't what you need,
    F#m  D
You need me.
    A    E
You need me.
    F#m  D
You need me.
    A    E
You need me.
    F#m  E
You need me.

BRIDGE
guitar 2 (guitar)
  A                E                F#m              D
E|x---------------|x---------------|x---------------|2~~~~~~~~~~~~~~~|   (repeat throughout)
B|0~~~~~~~~~~~~~~~|x---------------|x---------------|3~~~~~~~~~~~~~~~|   (base timing off chords)
G|2~~~~~~~~~~~~~~~|2~~~~~~~~~~~~~~~|2~~~~~~~~~~~~~~~|2~~~~~~~~~~~~~~~|
D|2~~~~~~~~~~~~~~~|2~~~~~~~~~~~~~~~|4~~~~~~~~~~~~~~~|0~~~~~~~~~~~~~~~|
A|0~~~~~~~~~~~~~~~|2~~~~~~~~~~~~~~~|4~~~~~~~~~~~~~~~|0~~~~~~~~~~~~~~~|
D|x---------------|2~~~~~~~~~~~~~~~|4~~~~~~~~~~~~~~~|0~~~~~~~~~~~~~~~|

          A                E
Yeah, the ink may stain my skin,
       F#m              D
and my jeans may all be ripped.
        A
I'm not perfect, 
      E                     F#m            D
but I swear I'm perfect for you.

CHORUS
guitar 2 (guitar)
  A                E                F#m              D
E|----------------|----------------|----------------|----------------|  (repeat throughout)
B|-----2-0~~~~~~--|----2-0~~~~~~~--|----2-0~~~~~~~--|----3-0~~~~~~~--|  (base timing off chords)
G|--------------2-|--------------2-|--------------2-|--2-----------2-|
D|--2-------------|--2-------------|--2-------------|0---------------|
A|0---------------|2---------------|4---------------|----------------|
D|----------------|----------------|----------------|----------------|
guitar 3 (violins)
  A                E                F#m              D
E|0---0---0---0---|0---0---0---0---|2---2---2---2---|2---2---2---2---|
B|0---0---0---0---|0---0---0---0---|2---2---2---2---|3---3---3---3---|
G|2---2---2---2---|2---2---2---2---|2---2---2---2---|2---2---2---2---|
D|2---2---2---2---|2---2---2---2---|4---4---4---4---|0---0---0---0---|
A|0---0---0---0---|2---2---2---2---|4---4---4---4---|0---0---0---0---|
D|x---x---x---x---|2---2---2---2---|4---4---4---4---|0---0---0---0---|

    A                E                     F#m   D
And there's no guarantee that this will be eeeaasy
           A           E       F#m   D
It's not a miracle you need, believe me.
    A             E
Now I'm no angel, I'm just me,
    F#m             D
But I will love you endlessly!
A                     E
Wings aren't what you need,
    F#m  D
You need me.
    A    E
You need me.
    F#m  D
You need me.
    A    E
You need me.
    F#m  E
You need me.

OUTRO
guitar 1 (piano)
  A                E                F#m              D
E|------------0~~~|------------0~~~|------------0~~~|------------4~~~|  (repeat throughout)
B|------0~~~~~~~2~|------0~~~~~~~2~|------0~~~~~~~2~|------0~~~~~~~5~|  (base the timing off chords)
G|----2~~~~~2~~~~~|----2~~~~~2~~~~~|----2~~~~~2~~~~~|----2~~~~~2~~~~~|
D|--2~~~~~2~~~~~~~|----------------|----------------|----------------|
A|0~~~~~~~~~~~~~~~|--2~~~~~2~~~~~~~|--4~~~~~4~~~~~~~|--0~~~~~0~~~~~~~|
D|----------------|2~~~~~~~~~~~~~~~|4~~~~~~~~~~~~~~~|0~~~~~~~~~~~~~~~|

          A                               E                        F#m                D
There's a shop down the street where they sell plastic rings for a quarter a piece, I swear it.
       A                              E                          F#m                    D
Yeah I know that it's cheap, not like gold in your dreams, but I hope that you'll still wear it.

KEY
|--x--|   block string
|-----|   release note
|~~~~~|   hold note

            
            
Suggest correction
Creating personal tab
Creating personal tab
You can edit any tab online and save it as your Personal.

You can edit, replace or remove any tab part or add personal notes – all changes will be seen only by you.

Personal tabs can be accessed anytime from any device, even offline.
Learn more »
Give kudos to tab author, rate the tab!
1 2 3 4 5
comments
print report bad tab
guest
You may want to rate the tab now too:
select rating
Wanna post a correction for this tab? Suggest correction