Oops, an error
Loading. Please wait.

Sab Bhula Kai tab

version 2
version 2

Whole song

Interactive

4,048 views 3 this week
no commentswrite comment
1 2 3 4 5
2 more votes to show rating
add to favorites
×
Save as Personal and add changes to this tab that will be seen only by you. Learn more ›
×
You can save this tab as Personal to edit and correct it or add notes. All changes will be seen only by you. Learn more »
launch autoscroll
font size
0
reset
how to read this tab
guitar tuner
edit
Autoscroll
slow
fast
+/-
esc
set tempo
stop
SAB BHULA KAI INTRO Tabs

The Call-sab bhula ke

Transposed by- Manjit kumar
Mann_tum816@yahoo.co.in

Note-for tuning the guitar go through the steps
Here is the step by step guitar tuning material for playing SAB BHULA KAI
Step-1 :-Make a standard Tuning first- EADGBe
Step-2 :- (EADGBe) look at e or 1st string  from down to up.
Lower the tuning until the 1st string with 4th string (A)don’t have the same impact when
match them.if u don’t understand this I have another way of tuning the  e  string to A.
       U can lower down the e string tuning to two step down.which means the sound it
to produce while playing open e. now the same is produced on second fret of 1st string and
once u r done with the tuning now press 1st string of 2nd fret,play it once and match it 
upper E.the sound output would apparently b the same. Bcz no doubt upper E has
pitch and lower E produces the higher pitch. but both has the same impact or ouput.now D 
replace the e of 1st string. Now the tuning is
      EADGB D

Step-3 EADGBD 2nd string can also be tuned in two ways:
1: (now look at the B or 2nd string open from down to up.Lower the tuning until the 5th
of 2nd string doesn’t produces the sound similar to open D(E bcz E is D now) here B is
by A. Now the tuning is EADGAD
2:  lower the 2nd string until 5th string orB doesn’t have the same out put.u can choose
follow any of way. they are very simple

Your  guitar is now tuned for playing SAB BHULA KE  by the CALL BAND

Well dont play other chords  in this tuning coz it sounds worse than pathetic

plucking intro
D---------------0---------5----------4---------7------------|
A---------0-------0----------0---------0---------0----------|
G------4----4--------4---------0---------0---------0--------|
D---5-------------------------------------------------------|
A-----------------------------------------------------------|
E-----------------------------------------------------------|


D-----------------0---------7---------5--------4------------|
A----------0--------0----------0--------0--------0----------|
G------6-----6--------6----------0--------0--------0--------|
D---7-------------------------------------------------------|
A-----------------------------------------------------------|
E-----------------------------------------------------------|

D--------------0-----------------------0---------------|
A--------0--------0-------------0---------0-----0------|
G-----4----4---------4------4-----4---------4----------|
D--5----------------------5----------------------------|
A------------------------------------------------------|
E------------------------------------------------------|


D----------------0-------------------------0------------------|
A---------0---------0--------------0----------0------0--------|
G------6-----6----------6------6-----6------------6-----------|
D--7-------------------------7--------------------------------|
A-------------------------------------------------------------|
E-------------------------------------------------------------|

STRUMING chords ( don’t press  1 and 2 string  A ,D in these all chords but play the
on every string)


1st chord
 Bm
1I--------I---------I----------|ID
2I--------I---------I----------|IA
3I----7---I---------I----------|IG
4I--------I---------I----9-----|ID
5I--------I---------I----9-----|IA
6I----7---I---------I----------|IE

2nd chord
      A
DI--------I---------I-----------|I
AI--------I---------I-----------|I
GI--------I----6----I-----------|I
DI--------I---------I--7--------|I
AI--------I---------I--7--------|I
EI----5---I---------I-----------|I

3rd chord
        G
DI--------I---------I-----------|I
AI--------I---------I-----------|I
GI--------I----4----I-----------|I
DI--------I---------I--5--------|I
AI--------I---------I--5--------|I
EI----3---I---------I-----------|I

4th chord
            A
DI--------I---------I-----------|I
AI--------I---------I-----------|I
GI--------I----6----I-----------|I
DI--------I---------I--7--------|I
AI--------I---------I--7--------|I
EI----5---I---------I-----------|I

TERI                              KHAMOSHIO
D----------------------------0------------------------------|
A---------------0-----------------0---------0---------------|
G--------0---------0----------------0---------0----0--------|
D-----4----4---------4------------------4-------4-----------|
A--5--------------------------------------------------------|
E-----------------------------------------------------------|

       MEIN                                    WO
D--------------------------------------0---------------------------|
A------------------0----------3-----------3------3-----------------|
G---------0----------0----------0-----------0-------0--------------|
D------2----2----------2----------2---------------------2----------|
A--3---------------------------------------------------------------|
E------------------------------------------------------------------|


BAATEIN                  HAIN                CHHUPEE
D------------------------0----------0--------0----------------|
A----------------0----------0----------1--------12p-----------|P=pull off
G----------0-------0----------0----------0--------------------|
D-------9----9--------9---------------------------------------|
A--10---------------------------------------------------------|
E-------------------------------------------------------------|

D----------------0--------------------------0----------------|
A----------0-------0--------------0-----------0--------------|
G-------0----0--------0--------4----4-----------4------------|
D----4-----------------------5-------------------------------|
A------------------------------------------------------------|
E------------------------------------------------------------|

 MUJHKO                         CHHOO         LETI
D----------------------------0------------------------------|
A---------------0-----------------0---------0---------------|
G--------0---------0----------------0---------0----0--------|
D-----4----4---------4------------------4-------4-----------|
A--5--------------------------------------------------------|
E-----------------------------------------------------------|

  HEI       WOH                                  HAR
D--------------------------------------0---------------------------|
A------------------0----------3-----------3------3-----------------|
G---------0----------0----------0-----------0-------0--------------|
D------2----2----------2----------2---------------------2----------|
A--3---------------------------------------------------------------|
E------------------------------------------------------------------|

   AAH          JAU      YUN              NIKLEE
D------------------------0----------0--------0----------------|
A----------------0----------0----------1--------12p-----------|
G----------0-------0----------0----------0--------------------|
D-------9----9--------9---------------------------------------|
A--10---------------------------------------------------------|
E-------------------------------------------------------------|

                                  vo    ho  o
D-----------------0--------------------------0---------------|
A-----------0-------0--------------0-----------0-------------|
G-------0----0--------0--------4----4------------4-----------|
D----4------------------------5------------------------------|
A------------------------------------------------------------|
E------------------------------------------------------------|

Bm         A                  G                 A
           NAMEE  JAU  AANKHON  MEIN THEE
Bm              A               G                 A
            KHULEE WOH BAATEIN SABHEE


Bm    A                  G                  A
 SAB BHULA KAI PHIR BHEE CHALA MEIN
Bm           A          G                  A
  DUNIYA KEE RASMEIN BHULA KAI
Bm            A      G                  A
  MUJHKO JAU HIMMAT MILEE
Bm    A                                                Bm ful strumming   G          Bm    G
  MERI DIL MEIN BARHTEE RAHEE

   MEIN  BHEE                    IN AANSUO
D----------------------------0------------------------------|
A---------------0-----------------0---------0---------------|
G--------0---------0----------------0---------0----0--------|
D-----4----4---------4------------------4-------4-----------|
A--5--------------------------------------------------------|
E-----------------------------------------------------------|

   MEIN                                        DOOBA
D--------------------------------------0---------------------------|
A------------------0----------3-----------3------3-----------------|
G---------0----------0----------0-----------0-------0--------------|
D------2----2----------2----------2---------------------2----------|
A--3---------------------------------------------------------------|
E------------------------------------------------------------------|

   HOON            KITNEY                DIN
D------------------------0----------0--------0----------------|
A----------------0----------0----------1----------12p---------|
G----------0-------0----------0---------0---------------------|
D-------9----9--------9---------------------------------------|
A--10---------------------------------------------------------|
E-------------------------------------------------------------|


D-----------------0--------------------------0---------------|
A-----------0-------0--------------0-----------0-------------|
G-------0----0--------0--------4----4------------4-----------|
D----4------------------------5------------------------------|
A------------------------------------------------------------|
E------------------------------------------------------------|


  KHUD SE                    KEH      SAKUn
D----------------------------0------------------------------|
A---------------0-----------------0---------0---------------|
G--------0---------0----------------0---------0----0--------|
D-----4----4---------4------------------4-------4-----------|
A--5--------------------------------------------------------|
E-----------------------------------------------------------|
   GA                                          JIYA
D--------------------------------------0---------------------------|
A------------------0----------3-----------3------3-----------------|
G---------0----------0----------0-----------0-------0--------------|
D------2----2----------2----------2---------------------2----------|
A--3---------------------------------------------------------------|
E------------------------------------------------------------------|

     HOON              TERE                BIN
D------------------------0----------0--------0----------------|
A----------------0----------0----------1----------12p---------|
G----------0-------0----------0---------0---------------------|
D-------9----9--------9---------------------------------------|
A--10---------------------------------------------------------|
E-------------------------------------------------------------|

                                  vo    ho  o
D-----------------0--------------------------0---------------|
A-----------0-------0--------------0-----------0-------------|
G-------0----0--------0--------4----4------------4-----------|
D----4------------------------5------------------------------|
A------------------------------------------------------------|
E------------------------------------------------------------|


Bm   A                  G                 A
         KHUSHEE JAU BAATON MEIN THEE
Bm         A                  G                 A
        KHULEE WOH BAATEIN SABHEE

Bm    A                  G                  A
 SAB BHULA KAI PHIR BHEE CHALA MEIN
Bm           A          G                  A
  DUNIYA KEE RASMEIN BHULA KAI
Bm            A      G                  A
  MUJHKO JAU HIMMAT MILEE
Bm    A
  MERI DIL MEIN BARHTEE RAHEE

Bm

D-----------------0------------------------0-------------|
A----------0--------0--------------0---------0-----------|
G-------9----9---------9--------9---9----------9---------|
D--10-----------------------10---------------------------|
A--------------------------------------------------------|
E---8----------------------------------------------------|
G
D-----------------0----------------------0-------------|
A----------0--------0------------0---------0-----------|
G-------4----4--------4------4----4----------4---------|
D---5-----------------------5--------------------------|
A------------------------------------------------------|
E---3--------------------------------------------------|
Bm

D-----------------0------------------------0-------------|
A----------0--------0--------------0---------0-----------|
G-------9----9---------9--------9---9----------9---------|
D--10-----------------------10---------------------------|
A--------------------------------------------------------|
E---8----------------------------------------------------|
G
D-----------------0----------------------0-------------|
A----------0--------0------------0---------0-----------|
G-------4----4--------4------4----4----------4---------|
D---5-----------------------5--------------------------|
A------------------------------------------------------|
E---3--------------------------------------------------|

Bm                                                                             G
D------------------0----------------------------0--------------|
A----------0---------0----------------0------------0-----------|
G-------7----7---------7---------7------7-------------7--------|
D---8------------------------8---------------------------------|
A--------------------------------------------------------------|
E---6----------------------------------------------------------|

D-----------------0------------------------0----------|
A----------0---------0---------------0-------0--------|
G------6-----6---------6---------6----6-------6-------|
D---7--------------------------7----------------------|
A-----------------------------------------------------|
E-----------------------------------------------------|

Bm                                                                             G
D-----------------0------------------------0----------------------|
A----------0--------0--------------0---------0--------------------|
G-------9----9---------9--------9----9----------9-----------------|
D--10------------------------10-----------------------------------|
A-----------------------------------------------------------------|
E---8-------------------------------------------------------------|

D---------------------0-----------------------------0-------------|
A-------------0----------0------------------0---------0-----------|
G--------11-----11--------11--------11----11---------11-----------|
D----12---------------------------12------------------------------|
A-----------------------------------------------------------------|
E-----------------------------------------------------------------|

Bm   A                  G                 A
      NAMEE JAU AANKHON MEIN THEE
      NAMEE JAU AANKHON MEIN THEE
Bm   A              G                 A
      KHULEE WOH BAATEIN SABHEE


Bm    A                  G                  A
 SAB BHULA KAI PHIR BHEE CHALA MEIN
Bm           A          G                  A
  DUNIYA KEE RASMEIN BHULA KAI
Bm            A      G                  A
  MUJHKO JO   HIMMAT MILEE
Bm    A
  MERI DIL MEIN BARHTEE RAHEE


SAB BHULA KAI   SAB BHULA KAI

 FIR BE CHALA MEIN


Hey this song  is very simple to play..i m sure u liked the chords and tabs bcz they are
much real .if u have any query regarding the tabs and chords. This is my mail ID- 
mann_tum816@yahoo.co.in

if u r unable to tune the guitar as per the tuning of the song . let me also know  the problem.
all the best

            
            
Suggest correction
Creating personal tab
Creating personal tab
You can edit any tab online and save it as your Personal.

You can edit, replace or remove any tab part or add personal notes – all changes will be seen only by you.

Personal tabs can be accessed anytime from any device, even offline.
Learn more »
Give kudos to tab author, rate the tab!
1 2 3 4 5
comments
print report bad tab
guest
Wanna post a correction for this tab? Suggest correction